Bass Tabs for Pearl Jam - Black

Pearl Jam - Black

Intro
G|--21----------
D|-----21\------
A|--------12\---
E|-----------10\

Verse
G|-----------------------------------------------------------------
D|-----------------------------------------------------------------
A|--7-----7--7-----7--------------4--4--4--5--5--5--5--7-----7--7--
E|--------------------5-----5--5--------------------------0--------

G|-----------------------------------------------------------------------------------
D|-----------------------------------------------------------------------------------
A|-----------------------7-----7--7-----------4--4-----4--5--5--5--5--7------------7\
E|--5---5h7--5--5--4--5-----0--------5--5--5-----------------------------------0-----

Pre-Chorus
G|-----5--------------------5--------------------------------------------------------12\
D|-----------------------------------------------------------------12h14-------12h14----
A|--3-----3--3--3--3--3--3-----3-----3--3--3--3---3/7-----------------------------------
E|-----------------------------------------------------0-----0--------------------------

G|-----5-----------------5--------------------------------
D|--------------------------------------------------------
A|--3-----3--3--3--3--3-----3-----3--3--3--3---3/7--------
E|-----------------------------------------------------0--

Chorus
G|--------------------------------------------------------------
D|--------------------------------------------------------------
A|--7--7--5-----5--5--5--5-----5--3-----3--3-----3---3/5--7-----
E|-----------------------------------------------------------0--

G|--------------------------------------------------
D|--------------------------------------------------
A|--7--7--7--5--5--5--5--5--5--3--3--3--3---3/5--7--
E|--------------------------------------------------

2nd Pre-Chorus
G|-----------------------------------------------------------------------------12~~
D|---------------------------------------------------------12h14---------12h14-----
A|--3-----3--3--3--3-----3-----3--3--3--3------5----7--------------12h14-----------
E|---------------------------------------------------0-----------------------------

G|--------------------------------------------------------------
D|--------------------------------------------------------------
A|--3-----3--3--3--3-----3-----3--3-----3--3-----3--5--7-----7--
E|--------------------------------------------------------0-----

Last Verse
G|-----------------------------7-----------------------------
D|-----------------------------------------------------------
A|--7-----7-----------7--5--5-----5--5--5--3--3--3--3---3/5--
E|-----0-----0--0--0-----------------------------------------

Last Scream
G|-----------------------------7-----------------------------------------------------------------------
D|-----------------------------------------------------------------------------------------------------
A|--7-----7-----------7--5--5-----5--5--5-----3-----3--3-----3--3--3--3-----5--5--5--5--5--3--3--3--3--
E|-----0-----0--0--0-----------------------------------------------------------------------------------

Variation Last 3 Verses
G|--------9-----12\11-11\9---9\--------7-----
D|-------------------------------------------
A|--7--7-----7--10\9---9\7---7\--5--5------5\
E|-------------------------------------------


G|--12\11----11\9-----9-----------5-----
D|--------------------------------------
A|--10\9------9\7-----7-----3--3-----5--
E|--------------------------------------

G|--12\11----11/14--------
D|------------------------
A|--10\9------9/12----7---
E|---------------------0--






tabs and chords, guitar tabs, music contests, music covers, songsterr, reverbnation, renditions, tabulature, bollywood chords, ultimate guitar, yousician, guitar lessons, torrins, fender, gibson, acoustic guitar, electric guitar, youtube covers, gootar, guitar tuner, A-Z tabs, 911 tabs