Guitar Tabs for Peach Tea

Tabs for Song : Peach Tea by Chance Thrash
capo on 1st fret
E|--2--2--1--2--3--2--2--2--1--2--
B|--3--3--3-----4--3--3--3--3-----
G|--4--4--4-----4--4--4--4--4-----
D|--2--------0--------2--------0--
A|-----2--2-----2--2-----2--2-----
E|--------------------------------

1. 
E|--2--2--------2--2-----2--2-----2-----2-----2--2-----2--2-----2--
B|--3--3--------3--3-----3--3-----3-----3-----3--2-----2--2-----2--
G|--4--4--------4--4-----4--4-----4-----4-----4--4-----4--4-----4--
D|--------------------2--------------------------------------------
A|--------0--2-----------------2-----0-----0--------0--------2-----
E|-----------------------------------------------------------------

E|-----0-----0--0-----0--0-----0--------------------------------
B|-----1-----1--1-----1--1-----1-----1-----1--0-----0--0-----0--
G|-----2-----2--2-----2--2-----2-----2-----2--2-----2--2-----2--
D|--0--------------0--------------------------------------------
A|--------0-----------------0-----------------------------------
E|--------------------------------3-----3--------3--------3-----

E|--------------------------------------------------------------
B|--------------------------------------------------------------
G|-----3-----3--3-----3--3-----3-----3-----3--2-----2--2-----2--
D|-----5-----5--5-----5--5-----5-----5-----5--3-----3--3-----3--
A|--------3--------3--------------------------------------------
E|--3-----------------------3-----1-----1--------1--------1-----

E|--------------------------------------3-----3--2-----2--2-----2--
B|-----1-----1--1-----1--1--------------4-----4--3-----3--3-----3--
G|-----2-----2--2-----2--2--------------4-----4--4-----4--4-----4--
D|-----------------------------------------------------------------
A|--0-----0--------0--------0--0--1--2-----2--------2--------2-----
E|-----------------------------------------------------------------

2. 
E|-----2-----2--2-----2--2-----2-----2-----2--2-----2--2-----2--
B|-----3-----3--3-----3--3-----3-----3-----3--2-----2--2-----2--
G|-----4-----4--4-----4--4-----4-----4-----4--4-----4--4-----4--
D|--2--------------2--------------------------------------------
A|--------2-----------------2-----0-----0--------0--------0-----
E|--------------------------------------------------------------

E|-----2-----2--2-----2--2-----2--------------------------------
B|-----2-----2--2-----2--2-----2-----2-----2--3-----3--3-----3--
G|-----2-----2--2-----2--2-----2-----2-----2--2-----2--2-----2--
D|--0--------------0--------------------------------------------
A|--------0-----------------0-----2--------------2--------------
E|--------------------------------------2-----------------2-----

E|-----2-----2--2-----2--2-----2-----2-----2--2-----2--2-----2--
B|-----3-----3--3-----3--3-----3-----3-----3--2-----2--2-----2--
G|-----2-----2--2-----2--2-----2-----2-----2--2-----2--2-----2--
D|--2--------------2--------------------------------------------
A|--------2-----------------2-----0-----0--------0--------0-----
E|--------------------------------------------------------------

E|-----2-----2--2-----2--2-----2--------------------------------
B|-----2-----2--2-----2--2-----2-----2-----2--3-----3--3--------
G|-----2-----2--2-----2--2-----2-----2-----2--2-----2--2--------
D|--0--------------0--------------------------------------------
A|--------0-----------------0-----2--------------2--------------
E|--------------------------------------2-----------------2--1--

E|--------------------------------------------------------------------------------------------------x2
B|-----4-----4-----3-----2--0-----2-----2-----0-----0--0-----0-----0--2--2--0-----0-----5-----5-----
G|-----3-----3-----2-----2--2-----2-----2-----1-----1--1-----1-----1--2--1--1-----1-----4-----4-----
D|--------------------------------------------------------------------------------------------------
A|--4--------------------------2--------------------------------------------------------------------
E|--------3-----2-----2--------------2-----1-----1--------0-----0-----2--1--0--0--0--0--3--3--3--3--

E|-----2-----2-----2-----3--3-----2-----2-----2-----3--3--
B|-----3-----3-----3-----4--4-----3-----3-----3-----4--4--
G|-----4-----4-----4-----4--4-----4-----4-----4-----4--4--
D|--2--------------------------2--------------------------
A|--------2-----0-----1--------------2-----0-----1--------
E|--------------------------------------------------------

E|-----2-----2-----2-----3--3-----2-----2--3--3--
B|-----3-----3-----3-----4--4-----3-----3--4--4--
G|-----4-----4-----4-----4--4-----4-----4--4--4--
D|--2--------------------------2-----------------
A|--------2-----0-----1--------------2-----------
E|-----------------------------------------------

Back to 1. into 2.

tabs and chords, guitar tabs, music transcription, music technology, deep learning, music information retrieval, transcribe into tabs & chords, chordify, music renditions, songsterr, reverbnation, tabulature, bollywood chords, ultimate guitar, yousician, guitar lessons, acoustic guitar, electric guitar, guitar tuner, 911 tabs