Bass Tabs for Peaceloving Death Squads

(/) Slide Up  (\) Slide Down  (h) Hammer On  (p) Pull Off  (b) Bend (r) Release (v) Vibrato (x) Muted

Tabs for Song : Peaceloving Death Squads
BPM : 93

First opening line is by guitar only, then the bass comes in with this:
G|--------------------------------------------------------------
D|--------------------------------------------------------------
A|--------------------------------------------------------------
E|--1-----------5-----------6-----------7-----------4-----3-----

Main riff:
G|--------------------------------------------------------------
D|--------------------------------------------------------------
A|--------------------------------------------------------------
E|--1--0--0--0--5--0--0--0--6--0--0--0--7--0--0--0--4-----3-----
Post-main riff:
G|-----------------------------------------------
D|-----------------------------------------------
A|-----------------------------------------------
E|--1---1\5-----1---1\7-----1---1/3-----1---1/0--
Breakdown:
G|--------------------------------------------------
D|--------------------------------------------------
A|--2--2--2--2--1--1--1--1--4--4--4--4--3--3--3--3--
E|--------------------------------------------------

G|--------------------------------------------------
D|--------------------------------------------------
A|--2--2--2--2--1--1--1--1--4--4--4--4--3--3--3--3--
E|--------------------------------------------------

G|--------------------------------------------------
D|--------------------------------------------------
A|--------------------------------------------------
E|--2--2--2--2--1--1--1--1--4--4--4--4--3--3--3--3--

G|--------------------------------------------------
D|--------------------------------------------------
A|--------------------------------------------------
E|--2--2--2--2--1--1--1--1--4--4--4--4--3--3--7--12-

G|--------------------------------------------------
D|--------------------------------------------------
A|--------------------------------------------------
E|--1-----0-----1-----0-----1-----0-----1-----0--0--

Use manual mode to free up cursor. Paste any tab in acousterr tab maker and we'll play it !!!
tabs and chords, guitar tabs, music transcription, music technology, deep learning, music information retrieval, transcribe into tabs & chords, chordify, music renditions, songsterr, reverbnation, tabulature, bollywood chords, ultimate guitar, yousician, guitar lessons, acoustic guitar, electric guitar, guitar tuner, 911 tabs