Guitar Tabs for Peace Sign - My Hero Academia

(/) Slide Up  (\) Slide Down  (h) Hammer On  (p) Pull Off  (b) Bend (r) Release (v) Vibrato

Tabs for Song : Peace Sign

Oh oh oh, oh oh oh, oooooohhh
E|--------3-----1--------------3-----1--------------3-----1-------------5--5--5--5--5--
B|--1--------------3-----4--------------3-----4--------------3-----4----5--5--5--5--5--
G|----------------------------------------------------------------------5--5--5--5--5--
D|----------------------------------------------------------------------8--8--8--8--8--
A|----------------------------------------------------------------------8--8--8--8--8--
E|----------------------------------------------------------------------7--7--7--7--7--

E|-----------6--1--3--------------1--3--4--3--1-----1--1--1--3-----3--3-----------6--1--3--------------1--3--4--3--1-----1--1--1-----
B|--1--3--4-----------1--1--3--4-----------------4-----------------------1--3--4-----------1--1--3--4-----------------4-----------4--
G|-----------------------------------------------------------------------------------------------------------------------------------
D|-----------------------------------------------------------------------------------------------------------------------------------
A|-----------------------------------------------------------------------------------------------------------------------------------
E|-----------------------------------------------------------------------------------------------------------------------------------

One day I set my eyes up to the sky and like a plane my dreams were passing by. And I awoke to tears that had filled my eyes, I need to spread my wings out and fly.
E|--------------------------------------------------------------------------------------------------------------------------------------
B|-----1--4--3-----1--1--------------------------------------------------1--4--3-----1--1-----------------------------------------------
G|--3-----------3--------3--1--0--0-----0--------------3--1--0--0-----3-----------3--------3--3--1--0--0--0--0-----0--1--0--------------
D|-----------------------------------------3--3--1--3-----------------------------------------------------------3-----------3--1--------
A|--------------------------------------------------------------------------------------------------------------------------------------
E|--------------------------------------------------------------------------------------------------------------------------------------

I lie awake at night with these memories of feeling powerless and they're haunting me. I'm always reaching out for this destiny, to make it happen that's all on me.
E|--------------------------------------------------------------------------------------------------------------------------------------------------
B|--------1--4-----3-----1-----1--------------------------------------------------1--4--3-----------1-----------------------------------------------
G|--0--3--------------3-----------3--1--0--0--0--0-----------3--3--1--0--0--0--3-----------3--3--3-----3--1--0--0--0--0-----0--1--0-----------------
D|--------------------------------------------------3--1--3--------------------------------------------------------------3-----------3--1-----------
A|--------------------------------------------------------------------------------------------------------------------------------------------------
E|--------------------------------------------------------------------------------------------------------------------------------------------------

Cruel fate sets in motion and no one else knows why. Waiting for the day to come, when will it show up, claiming what's before my eyes.
E|-----------------------------------------------------------------------------------------------------------------------
B|--------------------3-----3--3--4--3-----------------------------------------------------------------------------------
G|--------3-----------------------------3-----0--------3--1--0--1--3--1--0--1--1--3--1--0--1--1-----------0--------------
D|--1--1--------1--1-----------------------3-----------------------------------------------------3--1--3-----3-----------
A|-----------------------------------------------------------------------------------------------------------------------
E|-----------------------------------------------------------------------------------------------------------------------

With every issue, I gotta breathe through or the moment might just pass. They all told me I can't, they were laughing, well look who's laughing now.
E|--------------------------------------------------------------------------------------------------------------1--------------12-
B|--------------------------3-----3--3--4--3--------------------------------------------1-----------1-----4-----------4--3-----5--
G|-----------3--------------------------------3-----0--------3--1--0--1--3-----------------3-----3-----------------------------5--
D|--1--1--1--------1--1--1-----------------------3--------------------------1--1-----1--------------------------------------------
A|--------------------------------------------------------------------------------------------------------------------------------
E|--------------------------------------------------------------------------------------------------------------------------------

Now I can feel the fire burning deep within me, I'll be the hero and no one can stop me. Loudly I will scream it from the top of my lungs
E|--3--1--------3--1--------------------------------------------------1--------3--1-----4--3--1-----------1--3-----------------
B|--------4--1--------4--3--4--3--1--1-----4--3-----1--------------------4--1--------4-----------4--3--4-----------------------
G|--------------------------------------3--------3-----3--1--0--1--3-----------------------------------------------------------
D|-----------------------------------------------------------------------------------------------------------------------------
A|-----------------------------------------------------------------------------------------------------------------------------
E|-----------------------------------------------------------------------------------------------------------------------------

You've got those tired eyes from crying every moment, you cannot hide it someone's gonna notice. I'll be your hero, no one's gonna hurt you again.
E|--3--1--------3--1--------------------------------------------------1--------3--1-----4--3--1--------------------------------------
B|--------4--1--------4--3--4--3--1--1-----4--3-----1--------------------4--1--------4-----------4--3--1--3--4-----------------------
G|--------------------------------------3--------3-----3--1--0--1--3-----------------------------------------------------------------
D|-----------------------------------------------------------------------------------------------------------------------------------
A|-----------------------------------------------------------------------------------------------------------------------------------
E|-----------------------------------------------------------------------------------------------------------------------------------

Gonna raise my hand with a peace sign. Our story will last forever.
E|--------------------1--1-----3--------------------4--3--------------
B|--4--3--1--4--3--4--------4-----4--4--3--4--0--2--------4-----4--4--
G|--------------------------------------------------------------------
D|--------------------------------------------------------------------
A|--------------------------------------------------------------------
E|--------------------------------------------------------------------

E|-----------6--1--3--------------1--3--4--3--1-----1--1--1-----------------
B|--1--3--4-----------1--1--3--4-----------------4-----------4-----4--4--4--
G|--------------------------------------------------------------------------
D|--------------------------------------------------------------------------
A|--------------------------------------------------------------------------
E|--------------------------------------------------------------------------

------

---

Now supports capo and sound effects for vibrato/pull-off/hammer/bends etc !!! Checkout help section
tabs and chords, guitar tabs, music transcription, music technology, deep learning, music information retrieval, transcribe into tabs & chords, chordify, music renditions, songsterr, reverbnation, tabulature, bollywood chords, ultimate guitar, yousician, guitar lessons, acoustic guitar, electric guitar, guitar tuner, 911 tabs