Guitar Tabs for Paul Mccartney - Junk

Paul McCartney - Junk

CAPO at 2nd Fret

Strum Pattern -> D-DUD

1st Verse

   Motor cars, handle bars, bicycles for  two
E|--3--3--3-----2--3--2-----0--2--0--3-----0--0--0-----
B|--0--0--0-----0--0--0-----0--0--0--------0--0--0-----
G|--0--0--0-----0--0--0-----0--0--0--------0--0--0-----
D|--2--2--2-----1--1--1-----0--0--0--------------------
A|-----------------------------------------3--3--3-----
E|-----------------------------------------------------

    Broken hearted jubilee...
E|--0--2--3--5-----0--0--0--------------------------------
B|--0--0--0--------0--0--0-----------1--0---------0h1--0--
G|--0--0--0--------0--0--0-----------2--0---------0h2--0--
D|--------------------------------0-----------0-----------
A|--3--3--3--------3--3--3--------------------------------
E|-----------------------------3-----------3--------------

  Parachutes, soldier boots, sleeping bags for two
E|--3--3--3-----2--3--2-----0--2--0--3-----0--0--0-----
B|--0--0--0-----0--0--0-----0--0--0--------0--0--0-----
G|--0--0--0-----0--0--0-----0--0--0--------0--0--0-----
D|--2--2--2-----1--1--1-----0--0--0--------------------
A|-----------------------------------------3--3--3-----
E|-----------------------------------------------------

     Sentimental jamboree...
E|--0--2--3--5-----0--0--0--------------------------------
B|--0--0--0--------0--0--0-----------1--0---------0h1--0--
G|--0--0--0--------0--0--0-----------2--0---------0h2--0--
D|--------------------------------0-----------0-----------
A|--3--3--3--------3--3--3--------------------------------
E|-----------------------------3-----------3--------------

Chorus

    Buy,     buy, says the sign in the shop window
E|--1--1--0-----3--3--3-----2--2--2--------------
B|--1--1--1-----3--3--3-----3--0--1-----3--3--3--
G|--0--0--0-----0--0--0-----2--2--2-----0--0--0--
D|--0--0--0-----0--0--0-----0--0--0-----0--0--0--
A|--3--3--3-----2--2--2--------------------0--2--
E|--------------3--3--3-----------------3--------

    Why,      why, says the junk in the yard
E|--1--1--0-----3--3--3-----2--2--2-----3--3--3--
B|--1--1--1-----3--3--3-----3--0--1-----3--3--3--
G|--0--0--0-----0--0--0-----2--2--2-----0--0--0--
D|--0--0--0-----0--0--0-----0--0--0-----0--0--0--
A|--3--3--3-----2--2--2-----------------2--2--2--
E|--------------3--3--3-----------------3--3--3--

Pos-Chorus

E|--3--3--3-----2--3--2-----0--2--0--3-----0--0--0-----
B|--0--0--0-----0--0--0-----0--0--0--------0--0--0-----
G|--0--0--0-----0--0--0-----0--0--0--------0--0--0-----
D|--2--2--2-----1--1--1-----0--0--0--------------------
A|-----------------------------------------3--3--3-----
E|-----------------------------------------------------

E|--0--2--3--5-----0--0--0--------------------------------
B|--0--0--0--------0--0--0-----------1--0---------0h1--0--
G|--0--0--0--------0--0--0-----------2--0---------0h2--0--
D|--------------------------------0-----------0-----------
A|--3--3--3--------3--3--3--------------------------------
E|-----------------------------3-----------3--------------

2nd Verse

  Candlesticks, building bricks  something old and  new
E|--3--3--3-----2--3--2-----------0--2--0-----3-----0--0--0-----
B|--0--0--0-----0--0--0-----------0--0--0-----------0--0--0-----
G|--0--0--0-----0--0--0-----------0--0--0-----------0--0--0-----
D|--2--2--2-----1--1--1-----------0--0--0-----------------------
A|--------------------------------------------------3--3--3-----
E|--------------------------------------------------------------

    Memories for  you and me
E|--0--2--3--5-----0--0--0--------------------------------
B|--0--0--0--------0--0--0-----------1--0---------0h1--0--
G|--0--0--0--------0--0--0-----------2--0---------0h2--0--
D|--------------------------------0-----------0-----------
A|--3--3--3--------3--3--3--------------------------------
E|-----------------------------3-----------3--------------

Chorus

    Buy,     buy, says the sign in the shop window
E|--1--1--0-----3--3--3-----2--2--2--------------
B|--1--1--1-----3--3--3-----3--0--1-----3--3--3--
G|--0--0--0-----0--0--0-----2--2--2-----0--0--0--
D|--0--0--0-----0--0--0-----0--0--0-----0--0--0--
A|--3--3--3-----2--2--2--------------------0--2--
E|--------------3--3--3-----------------3--------

    Why,      why, says the junk in the yard
E|--1--1--0-----3--3--3-----2--2--2-----3--3--3--
B|--1--1--1-----3--3--3-----3--0--1-----3--3--3--
G|--0--0--0-----0--0--0-----2--2--2-----0--0--0--
D|--0--0--0-----0--0--0-----0--0--0-----0--0--0--
A|--3--3--3-----2--2--2-----------------2--2--2--
E|--------------3--3--3-----------------3--3--3--

Last Chorus

    Buy,     buy, says the sign in the shop window
E|--1--1--0-----3--3--3-----2--2--2--------------
B|--1--1--1-----3--3--3-----3--0--1-----3--3--3--
G|--0--0--0-----0--0--0-----2--2--2-----0--0--0--
D|--0--0--0-----0--0--0-----0--0--0-----0--0--0--
A|--3--3--3-----2--2--2--------------------0--2--
E|--------------3--3--3-----------------3--------

    Why,      why, says the junk in the
E|--1--1--0-----3--3--3-----2--2--2-----
B|--1--1--1-----3--3--3-----3--0--1-----
G|--0--0--0-----0--0--0-----2--2--2-----
D|--0--0--0-----0--0--0-----0--0--0-----
A|--3--3--3-----2--2--2-----------------
E|--------------3--3--3-----------------

Outro

   yard...
E|--3--3--3-----2--3--2-----------0--2--0-----3-----0--
B|--0--0--0-----0--0--0-----------0--0--0-----------0--
G|--0--0--0-----0--0--0-----------0--0--0-----------0--
D|--2--2--2-----1--1--1-----------0--0--0--------------
A|--------------------------------------------------3--
E|-----------------------------------------------------

E|--0--2---3/5-----0--------------------------------------------------3--
B|-----------------0-----3--1--0-----------------0--1--0--------------0--
G|-----------------0--------------2--0--2--------0--2--0--0--2--0-----0--
D|--------------------------------------------0-----------0--2--0--------
A|-----------------3-----------------------------------------------------
E|-----------------------------------------3--------------3--3--3-----3--
tabs and chords, guitar tabs, music transcription, music technology, deep learning, music information retrieval, transcribe into tabs & chords, chordify, music renditions, songsterr, reverbnation, tabulature, bollywood chords, ultimate guitar, yousician, guitar lessons, acoustic guitar, electric guitar, guitar tuner, 911 tabs