The Trees Part Three - Treelogia - The Morningside - Guitar Tabs

Tuning: DADGBE / Drop D

F major
BPM : 100

x4
E|--------------------------------------------------------------------------
B|--------------------------------------------------------------------------
G|--------------------------------------------------------------------------
D|--------------------------------------------------------------------------
A|-----8--------------------7--------------------5--------------------3-----
D|-----8--------------------7--------------------5--------------------3-----

x2
E|--------------------------------------------------------------------------
B|--------------------------------------------------------------------------
G|--------------------------------------------------------------------------
D|--------------------------------------------------------------------------
A|-----8--------------------------------------8--8--------------------------
D|-----8--------------------------------------8--8--------------------------

x2
E|--------------------------------------------------------------------
B|-----------------------------------------------------8--------------
G|------3\7--7--8--7--------------10-------7--------------------7-----
D|--------------------------------------------------------------------
A|--------------------------------------------------------------------
D|--------------------------------------------------------------------

E|--------------------------------------------------------
B|-----------------------------------------------------10-
G|-----7-----9--9--10-9-----10-9-----12-9-----12-9--------
D|--------------------------------------------------------
A|--------------------------------------------------------
D|--------------------------------------------------------

x3
E|-----------------------------------------------
B|--------------------------------------------10-
G|-----9--10-9-----10-9-----12-9-----12-9--------
D|-----------------------------------------------
A|-----------------------------------------------
D|-----------------------------------------------

x2
E|--------------------------------------------------------
B|--------------------------------------------------------
G|--------------------------------------------------5--7--
D|-----5------------------5\7-----------------------------
A|--------------------------------------------------------
D|--------------------------------------------------------

E|--------------------------------------------------------------------------------------
B|-----8--8--8--8--8--8--6--6-----------------6--5--5--------------5--------------------
G|--------------------------------------------------------------------5-----------5--7--
D|--------------------------------------------------------------------------------------
A|--------------------------------------------------------------------------------------
D|--------------------------------------------------------------------------------------

E|-----------------------------------------------------------------------------
B|-----8--8--8--8--8--8--10-10-------------------10----8-----------------------
G|-----------------------------------------------------------10-9--------------
D|--------------------------------------------------------------------10----7--
A|-----------------------------------------------------------------------------
D|-----------------------------------------------------------------------------

Both below x4
E|-----------------------------------------------------------------------------------------
B|--------------------10----------------------10-------------------10-------10-------------
G|-----7--------------------7-----------7--------7-----7-----7-----------7-----7--10-------
D|-----------------------------------------------------------------------------------------
A|-----------------------------------------------------------------------------------------
D|-----------------------------------------------------------------------------------------
|
E|-----------------------------------------------------------
B|-----13----------------------13----------13-------13-------
G|-----------10----------9--------9-----9-----9--------------
D|-----------------------------------------------------------
A|-----------------------------------------------------------
D|-----------------------------------------------------------

x2
E|-----------------------------------------------------------
B|-----------------------------8-----------13-11-10h11p10----
G|-----10-9-----10-9-----9--10----7--9--10----------------10-
D|-----------7--------7--------------------------------------
A|-----------------------------------------------------------
D|-----------------------------------------------------------

E|-----------------------------------------------------10-13-12----13-12-10-12-10h12p10h8--10--8h10p-8----------8--
B|--------------------------10----10-11-10-11-13-11-13----------10--------------------------------------11-10-11---
G|-----9--10-9--10-12-10-12----12----------------------------------------------------------------------------------
D|-----------------------------------------------------------------------------------------------------------------
A|-----------------------------------------------------------------------------------------------------------------
D|-----------------------------------------------------------------------------------------------------------------

x2
E|-----------------------------8-----------13-12-------
B|-----11-10----11-10----10-11----8--10-11-------10----
G|-----------7--------7-----------------------------10-
D|-----------------------------------------------------
A|-----------------------------------------------------
D|-----------------------------------------------------

E|--------------------------8--10-12-13-12-10-8-----8--------------------------------------------------------
B|-----8--10-8--10-11-10-11----------------------11----11-10-8--10-8-----------------------------------------
G|--------------------------------------------------------------------10-9--10--9h10p9--7-----------------7--
D|-----------------------------------------------------------------------------------------10-8--7--8--10----
A|-----------------------------------------------------------------------------------------------------------
D|-----------------------------------------------------------------------------------------------------------

x20
E|-----------------------------------------------------
B|-----------------------------------------------------
G|-----10-7-----10-9--------10-7-----10-7-----------7--
D|-----------7--------10-7--------7--------7-----7-----
A|--------------------------------------------10-------
D|-----------------------------------------------------

E|-----------------------------------------------------------------------
B|-----------------------------------------------------------------------
G|-----------------------------------------------------------------------
D|-----------------------------------------------------------------------
A|-----5--------------------5--3-----------------3--1--------------------
D|--------------------------------------------------------------------0--

E|--------------------------------------------------------------------------------
B|-----------------------------------------------------------------------------5--
G|--------------------------------------------------------------------7-----------
D|-----------------7--------------------------------------------7-----------------
A|-----8--------------------5--------------------5-----7-----8--------------------
D|--------------------------------------------------------------------------------

E|--------------------------------------------------------------------------------------
B|--------------------------------------------------------------------5-----6--------6--
G|--------------------------------------------------------------------------------7-----
D|-----------------7--------------------------------------------7-----------------------
A|-----8--------------------5--------------------5-----7-----8--------------------------
D|--------------------------------------------------------------------------------------

x2
E|--------------------------------------------------
B|-----8--8--8--8--8--10-10----------10----------10-
G|--------------------------7-----7-----7-----7-----
D|--------------------------------------------------
A|--------------------------------------------------
D|--------------------------------------------------

E|--------------------------------------------------
B|-----11-11-11-11-11-13-13----------13----------13-
G|--------------------------12----12----12----12----
D|--------------------------------------------------
A|--------------------------------------------------
D|--------------------------------------------------

E|--------------------------------------------------------
B|-----11-------------------10----------10----------------
G|-----------12-------12----------12----------12----------
D|-----------------12-------------------------------------
A|--------------------------------------------------------
D|-----------------------------------------------------0--

E|-----------------------------------13-------17----------------------------------------------------
B|-----15----------13----------------------------------15-------15----13-------------------10-------
G|-----------------------------------------------------------------------------------10-------------
D|--------------------------0-----------------------------------------------12-------------------0--
A|--------------------------------------------------------------------------------------------------
D|--------------------------------------------------------------------------------------------------

E|-----------------------------------------------------------------------------
B|--------------------------------------13----------13----------13----------13-
G|-----10-------12-------10-------10-------10----10----9-----9-----9-----9-----
D|-----------------------------------------------------------------------------
A|-----------------------------------------------------------------------------
D|-----------------------------------------------------------------------------

E|--------------------------------------------------------------------------------------------------------
B|-----------------------------13----------13-13-13-11-10-------------------------------------------------
G|-----7-----------9-----------------------------------------10-10\12-10----------------------------------
D|-----------------------------------------------------------------------------10----8-----7--7-----------
A|-----------------------------------------------------------------------------------------------8-----5--
D|--------------------------------------------------------------------------------------------------------

E|--------------------------------------------------------------------
B|--------------------------------------------------------------------
G|--------------------------9-----7-----------------------9-----7-----
D|--------------------7-----------------------------7-----------------
A|-----5--7--7--8--------------------------7--8-----------------------
D|--------------------------------------------------------------------

E|--------------------------------------------------------------
B|--------------------------------------------------------------
G|------7\9-----7---------------------7\9--7--------------------
D|--------------------7-----5--7-----------------7-----8--7-----
A|--------------------------------------------------------------
D|--------------------------------------------------------------

x8
E|-----------------------------------------------------------------8--------------8--------------8--
B|--------------------------------------------------------------------------------------------------
G|-----9-----10----7-----9--10----7-----9--10----7-----9-----10----------9--10----------9--10-------
D|--------------------------------------------------------------------------------------------------
A|--------------------------------------------------------------------------------------------------
D|--------------------------------------------------------------------------------------------------
tabs and chords, guitar tabs, music transcription, music technology, deep learning, music information retrieval, transcribe into tabs & chords, chordify, music renditions, songsterr, reverbnation, tabulature, bollywood chords, ultimate guitar, yousician, guitar lessons, acoustic guitar, electric guitar, guitar tuner, 911 tabs