Guitar Tabs for Pull Offs

pull offs:

1)


E|-----------------=
B|-----------------
G|-----------------
D|-----------------
A|------------5p4--
E|---5p4-----------


2)


E|-----------------
B|-----------------
G|-----------------
D|-----------------
A|---2p0---2p0-----
E|-----------------


3)


E|-----------------
B|-----------------
G|-----------------
D|-----------------
A|---7p6-----------
E|---------7p6-----


4)


E|--------------
B|--------------
G|--------------
D|--------------
A|---3p-2p0-----
E|--------------






tabs and chords, guitar tabs, music transcription, music technology, deep learning, music information retrieval, transcribe into tabs & chords, chordify, music renditions, songsterr, reverbnation, tabulature, bollywood chords, ultimate guitar, yousician, guitar lessons, acoustic guitar, electric guitar, guitar tuner, 911 tabs