Guitar Tabs for Paper Hearts

(/) Slide Up  (\) Slide Down  (h) Hammer On  (p) Pull Off  (b) Bend (r) Release (v) Vibrato (x) Muted

Tabs for Song : 
BPM : 200

capo 4th fret
[Intro/Verse]
e|-------------------------------------------------|-----------------------------------------------|
B|-----------0-----------0-----------0-------------|-----------------------------------------------|
G|--------0--------0-----------0-----------0-------|-----------------------------------------------|
D|-----2--------------2-----------2-----------2----|------0--4--------0---4h5--------5--4----------|
A|--3----------------------------------------------|---2-----------2--------------------------5----|
E|-------------------------------------------------|3----------------------------------------------|

e|-------------------------------------------------|-----------------------------------------------|
B|-----------0-----------0-----------0-------------|-----------------------------------------------|
G|--------0--------0-----------0-----------0-------|-----------------------------------------------|
D|-----2--------------2-----------2-----------2----|------0--4--------0---4h5--------5--4----------|
A|--3----------------------------------------------|---2-----------2--------------------------5----|
E|-------------------------------------------------|3----------------------------------------------|

e|-------------------------------------------------|-----------------------------------------------|
B|-----------0-----------0-----------0-------------|-----------------------------------------------|
G|--------0--------0-----------0-----------0-------|-----------------------------------------------|
D|-----2--------------2-----------2-----------2----|------0--4--------0---4h5--------5--4----------|
A|--3----------------------------------------------|---2-----------2--------------------------5----|
E|-------------------------------------------------|3----------------------------------------------|

e|-------------------------------------------------|-----------------------------------------------|
B|-----------0-----------0-----------0-------------|-----------------------------------------------|
G|--------0--------0-----------0-----------0-------|-----------------------------------------------|
D|-----2--------------2-----------2-----------2----|------0--4--------0---4h5--------5--4----------|
A|--3----------------------------------------------|---2-----------2--------------------------5----|
E|-------------------------------------------------|3----------------------------------------------|

[Chorus]
e|-------------------------------------------------------------------------------------------------|
B|-------------------------------------------------------------------------------------------------|
G|-----------0-----------------------4-----------------------0-----------------------2--0----------|
D|--------2--------2--------------4--------4--------------2--------2--------------0----------------|
A|-----3--------------3--------2--------------2--------2--------------2--------2-------------------|
E|--0-----------------------2-----------------------0-----------------------3----------------------|

e|-------------------------------------------------------------------------------------------------|
B|-------------------------------------------------------------------------------------------------|
G|-----------0-----------------------4-----------------------0-----------------------2--0----------|
D|--------2--------2--------------4--------4--------------2--------2--------------0----------------|
A|-----3--------------3--------2--------------2--------2--------------2--------2-------------------|
E|--0-----------------------2-----------------------0-----------------------3----------------------|

e|-------------------------------------------------------------------------------------------------|
B|-------------------------------------------------------------------------------------------------|
G|-----------0-----------------------4-----------------------0-----------------------2--0----------|
D|--------2--------2--------------4--------4--------------2--------2--------------0----------------|
A|-----3--------------3--------2--------------2--------2--------------2--------2-------------------|
E|--0-----------------------2-----------------------0-----------------------3----------------------|

e|-------------------------------------------------------------------------------------------------|
B|-------------------------------------------------------------------------------------------------|
G|-----------0-----------------------2-----0-----------------0-----------------------2--0h---------|
D|--------2--------2--------------0-----------2-----------2--------2--------------0----------------|
A|-----3--------------3--------2-----------------------2--------------2--------2-------------------|
E|--0-----------------------2-----------------------0-----------------------3----------------------|

capo 4th fret
[Intro/Verse]
e|-------------------------------------------------|-----------------------------------------------|
B|-----------0-----------0-----------0-------------|-----------------------------------------------|
G|--------0--------0-----------0-----------0-------|-----------------------------------------------|
D|-----2--------------2-----------2-----------2----|------0--4--------0---4h5--------5--4----------|
A|--3----------------------------------------------|---2-----------2--------------------------5----|
E|-------------------------------------------------|3----------------------------------------------|

e|-------------------------------------------------|-----------------------------------------------|
B|-----------0-----------0-----------0-------------|-----------------------------------------------|
G|--------0--------0-----------0-----------0-------|-----------------------------------------------|
D|-----2--------------2-----------2-----------2----|------0--4--------0---4h5--------5--4----------|
A|--3----------------------------------------------|---2-----------2--------------------------5----|
E|-------------------------------------------------|3----------------------------------------------|

e|-------------------------------------------------|-----------------------------------------------|
B|-----------0-----------0-----------0-------------|-----------------------------------------------|
G|--------0--------0-----------0-----------0-------|-----------------------------------------------|
D|-----2--------------2-----------2-----------2----|------0--4--------0---4h5--------5--4----------|
A|--3----------------------------------------------|---2-----------2--------------------------5----|
E|-------------------------------------------------|3----------------------------------------------|

e|-------------------------------------------------|-----------------------------------------------|
B|-----------0-----------0-----------0-------------|-----------------------------------------------|
G|--------0--------0-----------0-----------0-------|-----------------------------------------------|
D|-----2--------------2-----------2-----------2----|------0--4--------0---4h5--------5--4----------|
A|--3----------------------------------------------|---2-----------2--------------------------5----|
E|-------------------------------------------------|3----------------------------------------------|

[Chorus]
e|-------------------------------------------------------------------------------------------------|
B|-------------------------------------------------------------------------------------------------|
G|-----------0-----------------------4-----------------------0-----------------------2--0----------|
D|--------2--------2--------------4--------4--------------2--------2--------------0----------------|
A|-----3--------------3--------2--------------2--------2--------------2--------2-------------------|
E|--0-----------------------2-----------------------0-----------------------3----------------------|

e|-------------------------------------------------------------------------------------------------|
B|-------------------------------------------------------------------------------------------------|
G|-----------0-----------------------4-----------------------0-----------------------2--0----------|
D|--------2--------2--------------4--------4--------------2--------2--------------0----------------|
A|-----3--------------3--------2--------------2--------2--------------2--------2-------------------|
E|--0-----------------------2-----------------------0-----------------------3----------------------|

e|-------------------------------------------------------------------------------------------------|
B|-------------------------------------------------------------------------------------------------|
G|-----------0-----------------------4-----------------------0-----------------------2--0----------|
D|--------2--------2--------------4--------4--------------2--------2--------------0----------------|
A|-----3--------------3--------2--------------2--------2--------------2--------2-------------------|
E|--0-----------------------2-----------------------0-----------------------3----------------------|

e|-------------------------------------------------------------------------------------------------|
B|-------------------------------------------------------------------------------------------------|
G|-----------0-----------------------2-----0-----------------0-----------------------2--0h---------|
D|--------2--------2--------------0-----------2-----------2--------2--------------0----------------|
A|-----3--------------3--------2-----------------------2--------------2--------2-------------------|
E|--0-----------------------2-----------------------0-----------------------3----------------------|

capo 4th fret
[Intro/Verse]
e|-------------------------------------------------|-----------------------------------------------|
B|-----------0-----------0-----------0-------------|-----------------------------------------------|
G|--------0--------0-----------0-----------0-------|-----------------------------------------------|
D|-----2--------------2-----------2-----------2----|------0--4--------0---4h5--------5--4----------|
A|--3----------------------------------------------|---2-----------2--------------------------5----|
E|-------------------------------------------------|3----------------------------------------------|

e|-------------------------------------------------|-----------------------------------------------|
B|-----------0-----------0-----------0-------------|-----------------------------------------------|
G|--------0--------0-----------0-----------0-------|-----------------------------------------------|
D|-----2--------------2-----------2-----------2----|------0--4--------0---4h5--------5--4----------|
A|--3----------------------------------------------|---2-----------2--------------------------5----|
E|-------------------------------------------------|3----------------------------------------------|

[Chorus]
e|-------------------------------------------------------------------------------------------------|
B|-------------------------------------------------------------------------------------------------|
G|-----------0-----------------------4-----------------------0-----------------------2--0----------|
D|--------2--------2--------------4--------4--------------2--------2--------------0----------------|
A|-----3--------------3--------2--------------2--------2--------------2--------2-------------------|
E|--0-----------------------2-----------------------0-----------------------3----------------------|

e|-------------------------------------------------------------------------------------------------|
B|-------------------------------------------------------------------------------------------------|
G|-----------0-----------------------4-----------------------0-----------------------2--0----------|
D|--------2--------2--------------4--------4--------------2--------2--------------0----------------|
A|-----3--------------3--------2--------------2--------2--------------2--------2-------------------|
E|--0-----------------------2-----------------------0-----------------------3----------------------|

e|-------------------------------------------------------------------------------------------------|
B|-------------------------------------------------------------------------------------------------|
G|-----------0-----------------------4-----------------------0-----------------------2--0----------|
D|--------2--------2--------------4--------4--------------2--------2--------------0----------------|
A|-----3--------------3--------2--------------2--------2--------------2--------2-------------------|
E|--0-----------------------2-----------------------0-----------------------3----------------------|

e|-------------------------------------------------------------------------------------------------|
B|-------------------------------------------------------------------------------------------------|
G|-----------0-----------------------2-----0-----------------0-----------------------2--0h---------|
D|--------2--------2--------------0-----------2-----------2--------2--------------0----------------|
A|-----3--------------3--------2-----------------------2--------------2--------2-------------------|
E|--0-----------------------2-----------------------0-----------------------3----------------------|
tabs and chords, guitar tabs, music transcription, music technology, deep learning, music information retrieval, transcribe into tabs & chords, chordify, music renditions, songsterr, reverbnation, tabulature, bollywood chords, ultimate guitar, yousician, guitar lessons, acoustic guitar, electric guitar, guitar tuner, 911 tabs