Guitar Tabs for Pal - Jalebi

Intro..
E|--------10----8-----------------10----8-----------------10----8-----------------------
B|--8-----------------11-10-8-----------------11-10-8-----------------10/11----10-8-----
G|--------------------------------------------------------------------------------------
D|--------------------------------------------------------------------------------------
A|--------------------------------------------------------------------------------------
E|--------------------------------------------------------------------------------------

Pal ek pal mein hi tham sa gaya
E|--10----11-8---8h10----11-8---8h10----8--------------
B|-----------------------------------------11-11/13----
G|-----------------------------------------------------
D|-----------------------------------------------------
A|-----------------------------------------------------
E|-----------------------------------------------------

Tu haath mein haath jo de gaya
E|---8/10----11-8---8h10----11-8---8h10----8-----------------
B|--------------------------------------------11----11/13----
G|-----------------------------------------------------------
D|-----------------------------------------------------------
A|-----------------------------------------------------------
E|-----------------------------------------------------------

Chalun main jahaan jaaye tu Hoon rut main, hawayein tu Saathiya...
E|-----------------------10----8-----------------------10----8-----------------------10----8-----------------
B|--11-11-10-10-8--8--------------11-11-10-10-8--8--------------11-11-10-10-8--8-----------------10/11-10-8--
G|-----------------------------------------------------------------------------------------------------------
D|-----------------------------------------------------------------------------------------------------------
A|-----------------------------------------------------------------------------------------------------------
E|-----------------------------------------------------------------------------------------------------------

Hansu main jab gaaye tu Roun main murjhaaye tu Bheegun main barsaaye tu Saathiya…
E|-----------------------10----8-----------------------10----8-----------------------10----8-----------------
B|--11-11-10-10-8--8--------------11-11-10-10-8--8--------------11-11-10-10-8--8-----------------10/11-10-8--
G|-----------------------------------------------------------------------------------------------------------
D|-----------------------------------------------------------------------------------------------------------
A|-----------------------------------------------------------------------------------------------------------
E|-----------------------------------------------------------------------------------------------------------

Saaya mera hai teri shakal
Haal hai aisa kuch aajkal
E|--10-13----13/15-13----10\8--10-11-10----10-13----13/15-13----10\8--10-11-10----
B|--------------------------------------------------------------------------------
G|--------------------------------------------------------------------------------
D|--------------------------------------------------------------------------------
A|--------------------------------------------------------------------------------
E|--------------------------------------------------------------------------------

Subah main hoon tu dhoop hai
Main aaina hoon tu roop hai
E|--11-11-10-10-8--8--------8--------8--11-11-10-10-8--8--------8--10-10----
B|-----------------------11-------11-------------------------11-------------
G|--------------------------------------------------------------------------
D|--------------------------------------------------------------------------
A|--------------------------------------------------------------------------
E|--------------------------------------------------------------------------

Yeh tera saath khoob hai
Humsafar…
E|--11-11-10-10-8--8--------8--------8--------8-----------------------
B|-----------------------11-------11-------11-------10----10/11-10----
G|--------------------------------------------------------------------
D|--------------------------------------------------------------------
A|--------------------------------------------------------------------
E|--------------------------------------------------------------------

Chalun main jahaan jaaye tu Hoon rut main, hawayein tu Saathiya...
E|-----------------------10----8--------------------------10----8--------------------------10----8-----------------
B|--11-11-10-10-8--8-----------------11-11-10-10-8--8-----------------11-11-10-10-8--8-----------------10/11-10-8--
G|-----------------------------------------------------------------------------------------------------------------
D|-----------------------------------------------------------------------------------------------------------------
A|-----------------------------------------------------------------------------------------------------------------
E|-----------------------------------------------------------------------------------------------------------------
tabs and chords, guitar tabs, music transcription, music technology, deep learning, music information retrieval, transcribe into tabs & chords, chordify, music renditions, songsterr, reverbnation, tabulature, bollywood chords, ultimate guitar, yousician, guitar lessons, acoustic guitar, electric guitar, guitar tuner, 911 tabs