Our Lady Of Sorrows - My Chemical Romance - Guitar Tabs

Guitar 2
    
                                                                                                                                                                                                                                                                                                                                                                                                                                                                                                                                                                                                                                                                                                                                                                                                                                                                                                                                                                                                                                                                                                                                                                                              
E|-------------------------|-----------------------|
B|-------------------------|-----------------------|
G|-------------------------|-----------------------|
D|--6--------------6-------|7----------------------|
A|--4--------------4-------|3----------------------|
E|-------------------------|-----------------------|

    
                                                                                                                                                                                                                                                                                                                                                                                                                                                                                                                                                                                                                                                                                                                                                                                                                                                                                                                                                                                                                                                                                                                                                                                              
E|-------------------------|-----------------------|
B|-------------------------|-----------------------|
G|-------------------------|-----------------------|
D|-------------------------|-----------------------|
A|--7--------------7-------|7----------------------|
E|--5--------------5-------|8----------------------|

    
                                                                                                                                                                                                                                                                                                                                                                                                                                                                                                                                                                                                                                                                                                                                                                                                                                                                                                                                                                                                                                                                                                                                                                                              
E|----------------------------------|--------------------------------|
B|----------------------------------|--------------------------------|
G|----------------------------------|--------------------------------|
D|--6--6--------6--------6--------6-|7--7--------7--------7--------7-|
A|--4--4--4--4--4--4--4--4--4--4--4-|3--3--3--3--3--3--3--3--3--3--3-|
E|----------------------------------|--------------------------------|

    
                                                                                                                                                                                                                                                                                                                                                                                                                                                                                                                                                                                                                                                                                                                                                                                                                                                                                                                                                                                                                                                                                                                                                                                              
E|----------------------------------|-----------------------------------------------|
B|----------------------------------|-----------------------------------------------|
G|----------------------------------|-----------------------------------------------|
D|----------------------------------|-----------------------------------------------|
A|--7--7--------7--------7--------7-|---------------7--7--7--7--7--7--7--7--7--7--7-|
E|--5--5--5--5--5--5--5--5--5--5--5-|8--8--8--8--8--8--8--8--8--8--8--8--8--8--8--8-|

    
                                                                                                                                                                                                                                                                                                                                                                                                                                                                                                                                                                                                                                                                                                                                                                                                                                                                                                                                                                                                                                                                                                                                                                                              
E|----------------------------------------|--------------------------------------|
B|----------------------------------------|--------------------------------------|
G|----------------------------------------|--------------------------------------|
D|--6--6--6--6--6--6--6--6--6--6--6--6--6-|--------------------------------------|
A|--4--4--4--4--4--4--4--4--4--4--4--4--4-|7--7--7--7--7--7--7--7--7--7--7--7--7-|
E|----------------------------------------|8--8--8--8--8--8--8--8--8--8--8--8--8-|

    
                                                                                                                                                                                                                                                                                                                                                                                                                                                                                                                                                                                                                                                                                                                                                                                                                                                                                                                                                                                                                                                                                                                                                                                              
E|----------------------------------------|--------------------------------------|
B|----------------------------------------|--------------------------------------|
G|----------------------------------------|--------------------------------------|
D|----------------------------------------|--------------------------------------|
A|--7--7--7--7--7--7--7--7--7--7--7--7--7-|7--7--7--7--7--7--7--7--7--7--7--7--7-|
E|--5--5--5--5--5--5--5--5--5--5--5--5--5-|8--8--8--8--8--8--8--8--8--8--8--8--8-|

    
                                                                                                                                                                                                                                                                                                                                                                                                                                                                                                                                                                                                                                                                                                                                                                                                                                                                                                                                                                                                                                                                                                                                                                                              
E|----------------------------------------|--------------------------------------|
B|----------------------------------------|--------------------------------------|
G|----------------------------------------|--------------------------------------|
D|--6--6--6--6--6--6--6--6--6--6--6--6--6-|--------------------------------------|
A|--4--4--4--4--4--4--4--4--4--4--4--4--4-|7--7--7--7--7--7--7--7--7--7--7--7--7-|
E|----------------------------------------|8--8--8--8--8--8--8--8--8--8--8--8--8-|

    
                                                                                                                                                                                                                                                                                                                                                                                                                                                                                                                                                                                                                                                                                                                                                                                                                                                                                                                                                                                                                                                                                                                                                                                              
E|----------------------------------------|--------------------------------------|
B|----------------------------------------|--------------------------------------|
G|----------------------------------------|--------------------------------------|
D|----------------------------------------|--------------------------------------|
A|--7--7--7--7--7--7--7--7--7--7--7--7--7-|7--7--7--7--7--7--7--7--7--7--7--7--7-|
E|--5--5--5--5--5--5--5--5--5--5--5--5--5-|8--8--8--8--8--8--8--8--8--8--8--8--8-|

    
                                                                                                                                                                                                                                                                                                                                                                                                                                                                                                                                                                                                                                                                                                                                                                                                                                                                                                                                                                                                                                                                                                                                                                                              
E|----------------------------------------|--------------------------------------|
B|----------------------------------------|--------------------------------------|
G|----------------------------------------|--------------------------------------|
D|--6--6--6--6--6--6--6--6--6--6--6--6--6-|--------------------------------------|
A|--4--4--4--4--4--4--4--4--4--4--4--4--4-|7--7--7--7--7--7--7--7--7--7--7--7--7-|
E|----------------------------------------|8--8--8--8--8--8--8--8--8--8--8--8--8-|

    
                                                                                                                                                                                                                                                                                                                                                                                                                                                                                                                                                                                                                                                                                                                                                                                                                                                                                                                                                                                                                                                                                                                                                                                              
E|----------------------------------------|--------------------------------------|
B|----------------------------------------|--------------------------------------|
G|----------------------------------------|--------------------------------------|
D|----------------------------------------|--------------------------------------|
A|--7--7--7--7--7--7--7--7--7--7--7--7--7-|7--7--7--7--7--7--7--7--7--7--7--7--7-|
E|--5--5--5--5--5--5--5--5--5--5--5--5--5-|8--8--8--8--8--8--8--8--8--8--8--8--8-|

    
                                                                                                                                                                                                                                                                                                                                                                                                                                                                                                                                                                                                                                                                                                                                                                                                                                                                                                                                                                                                                                                                                                                                                                                              
E|----------------------------------------|--------------------------------------|
B|----------------------------------------|--------------------------------------|
G|----------------------------------------|--------------------------------------|
D|--6--6--6--6--6--6--6--6--6--6--6--6--6-|--------------------------------------|
A|--4--4--4--4--4--4--4--4--4--4--4--4--4-|7--7--7--7--7--7--7--7--7--7--7--7--7-|
E|----------------------------------------|8--8--8--8--8--8--8--8--8--8--8--8--8-|

    
                                                                                                                                                                                                                                                                                                                                                                                                                                                                                                                                                                                                                                                                                                                                                                                                                                                                                                                                                                                                                                                                                                                                                                                              
E|----------------------------------------|--------------------------------|
B|----------------------------------------|--------------------------------|
G|----------------------------------------|--------------------------------|
D|----------------------------------------|--------------------------------|
A|--7--7--7--7--7--7--7--7--7--7--7--7--7-|7--7--7--7--7--7--7--7--7---7/--|
E|--5--5--5--5--5--5--5--5--5--5--5--5--5-|8--8--8--8--8--8--8--8--8---8/--|

    
                                                                                                                                                                                                                                                                                                                                                                                                                                                                                                                                                                                                                                                                                                                                                                                                                                                                                                                                                                                                                                                                                                                                                                                              
E|-------------------------|--------------------------|
B|-------------------------|--------------------------|
G|--6--6-------------------|6--6--------------x--x--5-|
D|--6--6--6--6--7--7--4--4-|6--6--6--6--7--7--x--x--5-|
A|--4--4--6--6--7--7--4--4-|4--4--6--6--7--7--x--x--3-|
E|--4--4--4--4--5--5--2--2-|4--4--4--4--5--5--x--x--3-|

    
                                                                                                                                                                                                                                                                                                                                                                                                                                                                                                                                                                                                                                                                                                                                                                                                                                                                                                                                                                                                                                                                                                                                                                                              
E|-------------------------|--------------------------|
B|-------------------------|--------------------------|
G|--6--6-------------------|6--6--------------x--x--5-|
D|--6--6--6--6--7--7--4--4-|6--6--6--6--7--7--x--x--5-|
A|--4--4--6--6--7--7--4--4-|4--4--6--6--7--7--x--x--3-|
E|--4--4--4--4--5--5--2--2-|4--4--4--4--5--5--x--x--3-|

    
                                                                                                                                                                                                                                                                                                                                                                                                                                                                                                                                                                                                                                                                                                                                                                                                                                                                                                                                                                                                                                                                                                                                                                                              
E|----------------------------------------|--------------------------------------|
B|----------------------------------------|--------------------------------------|
G|----------------------------------------|--------------------------------------|
D|--6--6--6--6--6--6--6--6--6--6--6--6--6-|--------------------------------------|
A|--4--4--4--4--4--4--4--4--4--4--4--4--4-|7--7--7--7--7--7--7--7--7--7--7--7--7-|
E|----------------------------------------|8--8--8--8--8--8--8--8--8--8--8--8--8-|

    
                                                                                                                                                                                                                                                                                                                                                                                                                                                                                                                                                                                                                                                                                                                                                                                                                                                                                                                                                                                                                                                                                                                                                                                              
E|----------------------------------------|--------------------------------------|
B|----------------------------------------|--------------------------------------|
G|----------------------------------------|--------------------------------------|
D|----------------------------------------|--------------------------------------|
A|--7--7--7--7--7--7--7--7--7--7--7--7--7-|7--7--7--7--7--7--7--7--7--7--7--7--7-|
E|--5--5--5--5--5--5--5--5--5--5--5--5--5-|8--8--8--8--8--8--8--8--8--8--8--8--8-|

    
                                                                                                                                                                                                                                                                                                                                                                                                                                                                                                                                                                                                                                                                                                                                                                                                                                                                                                                                                                                                                                                                                                                                                                                              
E|----------------------------------------|--------------------------------------|
B|----------------------------------------|--------------------------------------|
G|----------------------------------------|--------------------------------------|
D|--6--6--6--6--6--6--6--6--6--6--6--6--6-|7--7--7--7--7--7--7--7--7--7--7--7--7-|
A|--4--4--4--4--4--4--4--4--4--4--4--4--4-|3--3--3--3--3--3--3--3--3--3--3--3--3-|
E|----------------------------------------|--------------------------------------|

    
                                                                                                                                                                                                                                                                                                                                                                                                                                                                                                                                                                                                                                                                                                                                                                                                                                                                                                                                                                                                                                                                                                                                                                                              
E|----------------------------------------|--------------------------------------|
B|----------------------------------------|--------------------------------------|
G|----------------------------------------|--------------------------------------|
D|----------------------------------------|--------------------------------------|
A|--7--7--7--7--7--7--7--7--7--7--7--7--7-|7--7--7--7--7--7--7--7--7--7--7--7--7-|
E|--5--5--5--5--5--5--5--5--5--5--5--5--5-|8--8--8--8--8--8--8--8--8--8--8--8--8-|

    
                                                                                                                                                                                                                                                                                                                                                                                                                                                                                                                                                                                                                                                                                                                                                                                                                                                                                                                                                                                                                                                                                                                                                                                              
E|----------------------------------------|--------------------------------------|
B|----------------------------------------|--------------------------------------|
G|----------------------------------------|--------------------------------------|
D|--6--6--6--6--6--6--6--6--6--6--6--6--6-|7--7--7--7--7--7--7--7--7--7--7--7--7-|
A|--4--4--4--4--4--4--4--4--4--4--4--4--4-|3--3--3--3--3--3--3--3--3--3--3--3--3-|
E|----------------------------------------|--------------------------------------|

    
                                                                                                                                                                                                                                                                                                                                                                                                                                                                                                                                                                                                                                                                                                                                                                                                                                                                                                                                                                                                                                                                                                                                                                                              
E|----------------------------------------|--------------------------------------|
B|----------------------------------------|--------------------------------------|
G|----------------------------------------|--------------------------------------|
D|----------------------------------------|--------------------------------------|
A|--7--7--7--7--7--7--7--7--7--7--7--7--7-|7--7--7--7--7--7--7--7--7--7--7--7--7-|
E|--5--5--5--5--5--5--5--5--5--5--5--5--5-|8--8--8--8--8--8--8--8--8--8--8--8--8-|

    
                                                                                                                                                                                                                                                                                                                                                                                                                                                                                                                                                                                                                                                                                                                                                                                                                                                                                                                                                                                                                                                                                                                                                                                              
E|----------------------------------------|--------------------------------------|
B|----------------------------------------|--------------------------------------|
G|----------------------------------------|--------------------------------------|
D|--6--6--6--6--6--6--6--6--6--6--6--6--6-|7--7--7--7--7--7--7--7--7--7--7--7--7-|
A|--4--4--4--4--4--4--4--4--4--4--4--4--4-|3--3--3--3--3--3--3--3--3--3--3--3--3-|
E|----------------------------------------|--------------------------------------|

    
                                                                                                                                                                                                                                                                                                                                                                                                                                                                                                                                                                                                                                                                                                                                                                                                                                                                                                                                                                                                                                                                                                                                                                                              
E|----------------------------------------|--------------------------------------|
B|----------------------------------------|--------------------------------------|
G|----------------------------------------|--------------------------------------|
D|----------------------------------------|---------------------------x--x--x--x-|
A|--7--7--7--7--7--7--7--7--7--7--7--7--7-|7--7--7--7--7--7--7--7--7--x--x--x--x-|
E|--5--5--5--5--5--5--5--5--5--5--5--5--5-|8--8--8--8--8--8--8--8--8--x--x--x--x-|

    
                                                                                                                                                                                                                                                                                                                                                                                                                                                                                                                                                                                                                                                                                                                                                                                                                                                                                                                                                                                                                                                                                                                                                                                              
E|-------------------------|--------------------------|
B|-------------------------|--------------------------|
G|--6--6-------------------|6--6--------------x--x--5-|
D|--6--6--6--6--7--7--4--4-|6--6--6--6--7--7--x--x--5-|
A|--4--4--6--6--7--7--4--4-|4--4--6--6--7--7--x--x--3-|
E|--4--4--4--4--5--5--2--2-|4--4--4--4--5--5--x--x--3-|

    
                                                                                                                                                                                                                                                                                                                                                                                                                                                                                                                                                                                                                                                                                                                                                                                                                                                                                                                                                                                                                                                                                                                                                                                              
E|-------------------------|-----------------------|
B|-------------------------|-----------------------|
G|--6--6-------------------|6--6-------------------|
D|--6--6--6--6--7--7--4--4-|6--6--6--6-------------|
A|--4--4--6--6--7--7--4--4-|4--4--6--6-------------|
E|--4--4--4--4--5--5--2--2-|4--4--4--4-------------|

    
                                                                                                                                                                                                                                                                                                                                                                                                                                                                                                                                                                                                                                                                                                                                                                                                                                                                                                                                                                                                                                                                                                                                                                                              
E|-------------------------------------|-----------------------------------|
B|-------------------------------------|-----------------------------------|
G|--6--6--6-----6--6-----6--6--6--6--6-|-----------------------------------|
D|--6--6--6-----6--6-----6--6--6--6--6-|7--7--7-----7--7-----7--7--7--7--7-|
A|--4--4--4-----4--4-----4--4--4--4--4-|7--7--7-----7--7-----7--7--7--7--7-|
E|--4--4--4-----4--4-----4--4--4--4--4-|5--5--5-----5--5-----5--5--5--5--5-|

    
                                                                                                                                                                                                                                                                                                                                                                                                                                                                                                                                                                                                                                                                                                                                                                                                                                                                                                                                                                                                                                                                                                                                                                                              
E|-------------------------------------|-----------------------------------|
B|-------------------------------------|-----------------------------------|
G|-------------------------------------|-----------------------------------|
D|--2--2--2-----2--2-----2--2--2--2--2-|4--4--4-----4--4--7--7--7-----7--7-|
A|--2--2--2-----2--2-----2--2--2--2--2-|2--2--2-----2--2--3--3--3-----3--3-|
E|--0--0--0-----0--0-----0--0--0--0--0-|-----------------------------------|

    
                                                                                                                                                                                                                                                                                                                                                                                                                                                                                                                                                                                                                                                                                                                                                                                                                                                                                                                                                                                                                                                                                                                                                                                              
E|-------------------------------------|-----------------------------------|
B|-------------------------------------|-----------------------------------|
G|--6--6--6-----6--6-----6--6--6--6--6-|-----------------------------------|
D|--6--6--6-----6--6-----6--6--6--6--6-|7--7--7-----7--7-----7--7--7--7--7-|
A|--4--4--4-----4--4-----4--4--4--4--4-|7--7--7-----7--7-----7--7--7--7--7-|
E|--4--4--4-----4--4-----4--4--4--4--4-|5--5--5-----5--5-----5--5--5--5--5-|

    
                                                                                                                                                                                                                                                                                                                                                                                                                                                                                                                                                                                                                                                                                                                                                                                                                                                                                                                                                                                                                                                                                                                                                                                              
E|-------------------------------------|-----------------------------------|
B|-------------------------------------|-----------------------------------|
G|-------------------------------------|-----------------------------------|
D|--2--2--2-----2--2-----2--2--2--2--2-|4--4--4-----4--4--7--7--7-----7--7-|
A|--2--2--2-----2--2-----2--2--2--2--2-|2--2--2-----2--2--3--3--3-----3--3-|
E|--0--0--0-----0--0-----0--0--0--0--0-|-----------------------------------|

    
                                                                                                                                                                                                                                                                                                                                                                                                                                                                                                                                                                                                                                                                                                                                                                                                                                                                                                                                                                                                                                                                                                                                                                                              
E|-------------------------------------|-----------------------------------|
B|-------------------------------------|-----------------------------------|
G|-------------------------------------|4--4--4-----4--4-----4--4--4--4--4-|
D|--7--7--7-----7--7-----7--7--7--7--7-|4--4--4-----4--4-----4--4--4--4--4-|
A|--7--7--7-----7--7-----7--7--7--7--7-|2--2--2-----2--2-----2--2--2--2--2-|
E|--5--5--5-----5--5-----5--5--5--5--5-|-----------------------------------|

    
                                                                                                                                                                                                                                                                                                                                                                                                                                                                                                                                                                                                                                                                                                                                                                                                                                                                                                                                                                                                                                                                                                                                                                                              
E|-------------------------------------|-----------------------------------|
B|-------------------------------------|-----------------------------------|
G|--6--6--6-----6--6-----6--6--6--6--6-|6--6--6-----6--6--9--9--9-----9--9-|
D|--6--6--6-----6--6-----6--6--6--6--6-|6--6--6-----6--6--9--9--9-----9--9-|
A|--4--4--4-----4--4-----4--4--4--4--4-|4--4--4-----4--4--7--7--7-----7--7-|
E|-------------------------------------|-----------------------------------|

About I Brought You My Bullets, You Brought Me Your Love : I Brought You My Bullets, You Brought Me Your Love (often shortened to Bullets) is the debut studio album by American rock band My Chemical Romance . It was recorded at Nada Recording Studio in New Windsor, New York, in May 2002 . I Brought You My Bullets, You Brought Me Your Love gave My Chemical Romance an underground following . Lead vocalist Gerard Way had to perform vocals while having a dental abscess . I Brought You My Bullets, You Brought Me Your Love has a raw sound featuring guitar riffs, very energetic vocals and occasional screaming . Despite being sold under the post-hardcore and alternative rock genres, it is considered an emo album with strong influences from punk rock, hardcore punk and heavy metal . It had a contribution from notable artists like Geoff Rickly. Its music is influenced by genres - post-hardcore emo screamo punk rock.

tabs and chords, guitar tabs, music transcription, music technology, deep learning, music information retrieval, transcribe into tabs & chords, chordify, music renditions, songsterr, reverbnation, tabulature, bollywood chords, ultimate guitar, yousician, guitar lessons, acoustic guitar, electric guitar, guitar tuner, 911 tabs