Guitar Tabs for Oriental Brothers In The 70s

(/) Slide Up  (\) Slide Down  (h) Hammer On  (p) Pull Off  (b) Bend (r) Release (v) Vibrato (x) Muted

Tabs & Chords
BPM : 110.0
Check Track 2 for Chord Positions 

                               Fm       Bm                                                    
E|--------------------------------------------------------------------------------------------
B|--------------------------------------------------------------------------------------------
G|--------------------------------------------------------------------------------------------
D|-----------------------------------------1--------------------------1-----------------0-----
A|--2--3--2--2--2--3--4--1--------------------------------------0-----------0-----3-----------
E|--------------------------4--2--1--1--0--------0--1--2--3--4-----------------------------4--

                                                                                              
E|--------------------------------------------------------------12----------------------------
B|--------------------------------------------------------------------------------------------
G|--------------------------------------------------------------------------------------------
D|--------------------------4--------0-----1--2-----------------------------------------------
A|--4--4--4-----------------------4--------------------2-----------3--3-----0-----1--4-----2--
E|--------------0-----------------------------------------------------------------------------

                
E|--------------
B|--------------
G|--------------
D|--------------
A|--1-----1--4--
E|--------------

Guitar Tabs for Oriental Brothers In The 70s






                               Fm       Bm                                                    
E|-----------------------------1--------2-----------------------------------------------------
B|-----------------------------1--------3-----------------------------------------------------
G|-----------------------------1--------4-----------------------------------------------------
D|-----------------------------3--------4-----------------------------------------------------
A|-----------------------------3--------2-----------------------------------------------------
E|-----------------------------1--------------------------------------------------------------

                                                                                              
E|--------------------------------------------------------------------------------------------
B|--------------------------------------------------------------------------------------------
G|--------------------------------------------------------------------------------------------
D|--------------------------------------------------------------------------------------------
A|--------------------------------------------------------------------------------------------
E|--------------------------------------------------------------------------------------------

                
E|--------------
B|--------------
G|--------------
D|--------------
A|--------------
E|--------------

tabs and chords, guitar tabs, music transcription, music technology, deep learning, music information retrieval, transcribe into tabs & chords, chordify, music renditions, songsterr, reverbnation, tabulature, bollywood chords, ultimate guitar, yousician, guitar lessons, acoustic guitar, electric guitar, guitar tuner, 911 tabs