Guitar Tabs for Open All Night (lead)

(/) Slide Up  (\) Slide Down  (h) Hammer On  (p) Pull Off  (b) Bend (r) Release (v) Vibrato (x) Muted

Tips for Song : 

EACH TIME YOU SEE A CHORD IT LAST FOR ONE MEASURE. 
I.E. EACH CHORD IS WORTH TWO 8TH NOTES IN REAL TIME.



hey riley i have
dreams...where i aam 
dying and she's there to 
make sure i cant die in
E|--------------x--------------------------------
B|--------------x--------------------------------
G|--------------x--------------------------------
D|--7-----3-----x-----9--9--9--9-----7--7--7--7--
A|--7-----3-----x-----9--9--9--9-----7--7--7--7--
E|--5-----1-----x-----7--7--7--7-----5--5--5--5--

peace
E|--------------------------
B|--------------------------
G|--------------------------
D|--3--3--3--3--3--3--3--3--
A|--3--3--3--3--3--3--3--3--
E|--1--1--1--1--1--1--1--1--

hate to think how much she wrecked me
but its all to easy these daaaays
E|--------------------x-----------------------------------------------------
B|--------------------x-----------------------------------------------------
G|--------------------x-----------------------------------------------------
D|--7-----7-----7-----x-----3--3--3--3--3--3--3--3--3--3--3--3--3--3--3--3--
A|--7-----7-----7-----x-----3--3--3--3--3--3--3--3--3--3--3--3--3--3--3--3--
E|--5-----5-----5-----x-----1--1--1--1--1--1--1--1--1--1--1--1--1--1--1--1--

wanna know how much she thinks of me
but it wont be enough to make me saaaane
E|--------------------x-----------------------------------------------------
B|--------------------x-----------------------------------------------------
G|--------------------x-----------------------------------------------------
D|--7-----7-----7-----x-----3--3--3--3--3--3--3--3--3--3--3--3--3--3--3--3--
A|--7-----7-----7-----x-----3--3--3--3--3--3--3--3--3--3--3--3--3--3--3--3--
E|--5-----5-----5-----x-----1--1--1--1--1--1--1--1--1--1--1--1--1--1--1--1--

E|--------------------------------------x-----------------------------------------------------
B|--------------------------------------x-----------------------------------------------------
G|--------------------------------------x-----------------------------------------------------
D|--------------7---9/11-11-11-11-11-9--x--7---9h7------------7p9---9/11-11p9--11p9---9\7-----
A|--9--9---7/9--------------------------x-----------9---7p9--------------------------------9--
E|--------------------------------------x-----------------------------------------------------

E|--------------------------------------x--------------------------------------------------------
B|--------------------------------------x--------------------------------------------------------
G|--------------------------------------x--------------------------------------------------------
D|--------------7---9/11-11-11-11-11-9--x--7---9h7------------7p9---9/11--9p11-9--7--9--7--------
A|--9--9---7/9--------------------------x-----------9---7p9--------------------------------9-----
E|--------------------------------------x--------------------------------------------------------

and i see you
dying on the streets of houston
E|--------------------------------------------------------
B|--------------------------------------------------------
G|--------------------------------------------------------
D|--------------------------------3--3--3--3--3--3--3--3--
A|--7--7--7--7--7--7--7--7--7-----3--3--3--3--3--3--3--3--
E|--------------------------------1--1--1--1--1--1--1--1--

mourning the loss of an other bad friend
E|--------------
B|--------------
G|--------------
D|--7-----7-----
A|--7-----7-----
E|--5-----5-----

but i guess that im just the same 
and i guess i dont know anything
E|--------------------------------------------------------------x--x--------x--x--
B|--------------------------------------------------------------x--x--------x--x--
G|--------------------------------------------------------------x--x--------x--x--
D|--3--3--3--3--3--3--3--3-----7--7--7--7--7--7--7--7-----7--7--x--x--7--7--x--x--
A|--3--3--3--3--3--3--3--3-----7--7--7--7--7--7--7--7-----7--7--x--x--7--7--x--x--
E|--1--1--1--1--1--1--1--1-----5--5--5--5--5--5--5--5-----5--5--x--x--5--5--x--x--

hey riley i have
dreams...where i aam 
dying and no one is 
there to care about..
E|--------------x--------------------------------
B|--------------x--------------------------------
G|--------------x--------------------------------
D|--7-----3-----x-----9--9--9--9-----7--7--7--7--
A|--7-----3-----x-----9--9--9--9-----7--7--7--7--
E|--5-----1-----x-----7--7--7--7-----5--5--5--5--

me
E|--------------------------
B|--------------------------
G|--------------------------
D|--3--3--3--3--3--3--3--3--
A|--3--3--3--3--3--3--3--3--
E|--1--1--1--1--1--1--1--1--


E|--------------------------------------x-----------------------------------------------------
B|--------------------------------------x-----------------------------------------------------
G|--------------------------------------x-----------------------------------------------------
D|--------------7---9/11-11-11-11-11-9--x--7---9h7------------7p9---9/11-11p9--11p9---9\7-----
A|--9--9---7/9--------------------------x-----------9---7p9--------------------------------9--
E|--------------------------------------x-----------------------------------------------------


E|--------------------------------------x-----------------------------------------------------
B|--------------------------------------x-----------------------------------------------------
G|--------------------------------------x-----------------------------------------------------
D|--------------7---9/11-11-11-11-11-9--x--7---9h7------------7p9---9/11--9p11-9--7--9--7-----
A|--9--9---7/9--------------------------x-----------9---7p9--------------------------------9--
E|--------------------------------------x-----------------------------------------------------

E|--------------------------------------x--------------------------------------
B|--------------------------------------x--------------------------------------
G|--------------------------------------x--------------------------------------
D|--7---7p-9/11-11----9---7p9---9/11-11-x--7---7p-9/11----12----14-14p16-16-14-
A|--------------------------------------x--------------------------------------
E|--------------------------------------x--------------------------------------

E|--------------------------------------------------x-----------------------------------------------
B|-----10----10----12----12----14----14----12----12-x-----10----10----12----12----14----14-14----14-
G|--11----11----11----11----11----11----11----11----x--11----11----11----11----11----11----11----11-
D|--------------------------------------------------x-----------------------------------------------
A|--------------------------------------------------x-----------------------------------------------
E|--------------------------------------------------x-----------------------------------------------
 *written in 8ths* dun-dun *mute* *mute* dun-dun *mute**mute*
 
 hey riiiileeeyyy
E|--------x--x--------x--x--------x--x--------x--x--------x--x--------x--x--------x--x-----------
B|--10-10-x--x--10-10-x--x--10-10-x--x--10-10-x--x--10-10-x--x--10-10-x--x--10-10-x--x--10----10-
G|--11-11-x--x--11-11-x--x--11-11-x--x--11-11-x--x--11-11-x--x--11-11-x--x--11-11-x--x--11----11-
D|--------x--x--------x--x--------x--x--------x--x--------x--x--------x--x--------x--x-----------
A|--------x--x--------x--x--------x--x--------x--x--------x--x--------x--x--------x--x-----------
E|--------x--x--------x--x--------x--x--------x--x--------x--x--------x--x--------x--x-----------

sorry we cant all be sober
sorry we cant all recover
sorry i never called it seems that
the process kills all, ahhhahaa
(X2)
E|-----------------------
B|-----------------------
G|-----------------------
D|--7-----3-----7-----3--
A|--7-----3-----7-----3--
E|--5-----1-----5-----1--

E|--------------------------------------x--------------------------------------
B|--------------------------------------x--------------------------------------
G|--------------------------------------x-----------------------------------9--
D|--------------7---9/11-11-11-11-11-9--x--------------7---9/11-11-11-11-11----
A|--9--9---7/9--------------------------x--9--9---7/9--------------------------
E|--------------------------------------x--------------------------------------



E|--------------------------------------x-----------------------------------------------------
B|--------------------------------------x-----------------------------------------------------
G|--------------------------------------x-----------------------------------------------------
D|--------------7---9/11-11-11-11-11-9--x--7---9h7------------7p9---9/11-11p9--11p9---9\7-----
A|--9--9---7/9--------------------------x-----------9---7p9--------------------------------9--
E|--------------------------------------x-----------------------------------------------------


E|--------------------------------------x-----------------------------------------------------
B|--------------------------------------x-----------------------------------------------------
G|--------------------------------------x-----------------------------------------------------
D|--------------7---9/11-11-11-11-11-9--x--7---9h7------------7p9---9/11--9p11-9--7--9--7-----
A|--9--9---7/9--------------------------x-----------9---7p9--------------------------------9--
E|--------------------------------------x-----------------------------------------------------
 
 *the only thing that makes this solo hard is that alot of them are on the upbeats*
 *you can hear them land in the song*
E|--------------------------------------------------------------------------------------------------------
B|--------------------10-------10-------------------------------------------------------------------------
G|---------------9p11-------11-------11--9\6---7p6--------------------6--6--------------------6-----------
D|---------9p11----------------------------------------7-----7---7h9-----------7-----7---7h9-----9--------
A|---9p11-------------------------------------------------------------------------------------------------v
E|--------------------------------------------------------------------------------------------------------

E|-----------------------------------------------------------------------------
B|-----------------------------------------------------------------------------
G|-----------------------------------------------------------------------------
D|---9h11-11----11-9--11-12----11----11h12-14----14-12-14-16----14----14h16----
A|-----------------------------------------------------------------------------
E|-----------------------------------------------------------------------------

E|-----------------------x-----------------------x--------------------------x--------------------------
B|-----------------------x--------14----------14-x--------------------------x--------------------------
G|--------14h16-16b16-14-x--14-16----16-14-16----x--16-14-16-14-------------x-----14-------------------
D|--14h16----------------x-----------------------x--------------16-14-16-14-x--16----16-14-16----14/---
A|-----------------------x-----------------------x--------------------------x--------------------------
E|-----------------------x-----------------------x--------------------------x--------------------------







Now supports capo and sound effects for vibrato/pull-off/hammer/bends/mutes etc !!! Checkout help section
tabs and chords, guitar tabs, music transcription, music technology, deep learning, music information retrieval, transcribe into tabs & chords, chordify, music renditions, songsterr, reverbnation, tabulature, bollywood chords, ultimate guitar, yousician, guitar lessons, acoustic guitar, electric guitar, guitar tuner, 911 tabs