Guitar Tabs for One Way - Hillsong

(/) Slide Up  (\) Slide Down  (h) Hammer On  (p) Pull Off  (b) Bend (r) Release (v) Vibrato (x) Muted

Tabs for Song : One Way - Hillsong United  
Verse
   (B)                                             (G#m)                                           (F#)                                            (E)                       
E|--------------------------------------------------------------------------------------------------------------------------------------------------------------------------------------------------
B|--------------------------------------------------------------------------------------------------------------------------------------------------------------------------------------------------
G|--------11-11-11----8-----6-----8-----8-----------------8--8--8-----8-----9-----8-----4-----------------11-11-11----8-----6-----4-----6-----8-----4-----------------------------------------------
D|--------------------------------------------------------------------------------------------------------------------------------------------------------------------------------------------------
A|--------------------------------------------------------------------------------------------------------------------------------------------------------------------------------------------------
E|--------------------------------------------------------------------------------------------------------------------------------------------------------------------------------------------------
   (B)                                             (G#m)                                           (F#)                                            (E)                   
E|--------------------------------------------------------------------------------------------------------------------------------------------------------------------------------------------------
B|--------------------------------------------------------------------------------------------------------------------------------------------------------------------------------------------------
G|--------11-11-11----8-----6-----8-----8-----------------8--8--8-----8-----9-----8-----4-----------------11-11-11----8-----6-----4-----6-----8-----4-----------------------9-----8-----6------6/4--
D|--------------------------------------------------------------------------------------------------------------------------------------------------------------------------------------------------
A|--------------------------------------------------------------------------------------------------------------------------------------------------------------------------------------------------
E|--------------------------------------------------------------------------------------------------------------------------------------------------------------------------------------------------

Chorus
   (B)                     (F#)                    (G#m)                   (E)
E|--2--2--2-----------------2--2--2-----------------4-----------------------------------------------
B|--4--4--4-----------------2--2--2-----------------4-----------------------------------------------
G|--4--4--4-----6-----8-----3--3--3-----6-----8-----4-----8--8--8-----8-----9-----8-----6------6/4--
D|--4--4--4-----------------4--4--4-----------------6-----------------------------------------------
A|--2--2--2-----------------4--4--4-----------------6-----------------------------------------------
E|--2--2--2-----------------2--2--2-----------------4-----------------------------------------------
   (B)                     (F#)                    (G#m)                   (A)
E|--2--2--2-----------------2--2--2-----------------4-----------------------------------------------
B|--4--4--4-----------------2--2--2-----------------4-----------------------------------------------
G|--4--4--4-----6-----8-----3--3--3-----6-----8-----4-----8--8--8-----8-----9-----8-----6-----4-----
D|--4--4--4-----------------4--4--4-----------------6-----------------------------------------------
A|--2--2--2-----------------4--4--4-----------------6-----------------------------------------------
E|--2--2--2-----------------2--2--2-----------------4-----------------------------------------------
   (A)
E|--------------------------
B|--------------------------
G|--9-----8-----6------6/4--
D|--------------------------
A|--------------------------
E|--------------------------

Instrumental (Chorus-Verse)
   (G#m)                   (E)                     (G#m)                   (E)
E|--------------------------------------------------------------------------------------------------
B|--------------------------------------------------------------------------------------------------
G|--------------------------------------------------------------------------------------------------
D|--------------------------------------------------------------------------------------------------
A|--6--6--6--6--6--6--6--6--------------------------6--6--6--6--6--6--6--6--------------------------
E|--------------------------7--7--7--7--7--7--7--7--------------------------7--7--7--7--7--7--7--7--

Bridge
   (B)                     (F#)                    (G#m)                   (E)
E|--------------------------------------------------------------------------------------------------
B|--------------------------------------------------------------------------------------------------
G|--8-----------------------6-----------------------8-----------------------9-----------------------
D|--------------------------------------------------------------------------------------------------
A|--------------------------------------------------------------------------------------------------
E|--------------------------------------------------------------------------------------------------
   (G#m)                   (F#)                    (E)             
E|--------------------------------------------------------------------------------------------------
B|--------------------------------------------------------------------------------------------------
G|--8-----------------------6-----------------------4-----------------------9--9--8--8--6--6--6--4--
D|--------------------------------------------------------------------------------------------------
A|--------------------------------------------------------------------------------------------------
E|--------------------------------------------------------------------------------------------------
   (B)                     (F#)                    (G#m)                   (E)  
E|--------------------------------------------------------------------------------------------------
B|--------------------------------------------------------------------------------------------------
G|--8--8--8--8--8--8--8--8--6--6--6--6--6--6--6--6--8--8--8--8--8--8--8--8--9--9--9--9--9--9--9--9--
D|--------------------------------------------------------------------------------------------------
A|--------------------------------------------------------------------------------------------------
E|--------------------------------------------------------------------------------------------------
   (G#m)                   (F#)                    (E)
E|--------------------------------------------------------------------------------------------------
B|--------------------------------------------------------------------------------------------------
G|--8--8--8--8--8--8--8--8--6--6--6--6--6--6--6--6--4--4--4--4--4--4--4--4--9--9--8--8--6--6---6/4--
D|--------------------------------------------------------------------------------------------------
A|--------------------------------------------------------------------------------------------------
E|--------------------------------------------------------------------------------------------------

    (B)                     (F#)                    (G#m)                   (E)  
E|--------------------------------------------------------------------------------------------------
B|--------------------------------------------------------------------------------------------------
G|--8--8--8--8--8--8--8--8--6--6--6--6--6--6--6--6--8--8--8--8--8--8--8--8--9--9--9--9--9--9--9--9--
D|--------------------------------------------------------------------------------------------------
A|--------------------------------------------------------------------------------------------------
E|--------------------------------------------------------------------------------------------------
   (G#m)                   (F#)                    (E)
E|--------------------------------------------------------------------------------------------------
B|--------------------------------------------------------------------------------------------------
G|--8--8--8--8--8--8--8--8--6--6--6--6--6--6--6--6--4--4--4--4--4--4--4--4--9--9--8--8--6--6---6/4--
D|--------------------------------------------------------------------------------------------------
A|--------------------------------------------------------------------------------------------------
E|--------------------------------------------------------------------------------------------------

tabs and chords, guitar tabs, music transcription, music technology, deep learning, music information retrieval, transcribe into tabs & chords, chordify, music renditions, songsterr, reverbnation, tabulature, bollywood chords, ultimate guitar, yousician, guitar lessons, acoustic guitar, electric guitar, guitar tuner, 911 tabs