Guitar Tabs for One Call Away ( Shortened Ver.)

(/) Slide Up  (\) Slide Down  (h) Hammer On  (p) Pull Off  (b) Bend (r) Release (v) Vibrato (x) Muted

Tabs for Song : 
BPM : 200

          im only one    call away         ill be there to save the day       superman got no        thing on me       im only one    call away
E|--------0--------------------0--0--------1--0--------1-----0-----0-----------0-----------------------0--0-----------0--------------------------------------
B|-----------3--1--1--------3--------------------3--1-----------3-----3-----------1--1-----1--------3--------1-----------3--1--1-----3--1--1-----------------
G|--------------------------------------------------------------------------------------0--------------------------------------------------------------------
D|-----------------------------------------------------------------------------------------------------------------------------------------------------------
A|-----------------------------------------------------------------------------------------------------------------------------------------------------------
E|-----------------------------------------------------------------------------------------------------------------------------------------------------------
    call me baby if you need a friend   i just want to give you love  come on  come on come on  reaching out to u so take  a chance   no matter where u go    you know ur not alone, im only 
E|--0--0--------------0--------------------0--0--------------0--------3--3-----0--0--------------0--0--------------0--------------------------------------------------------0--0-----0--------
B|--------3--3--1--3--------0--2-----------------3--3--1--3--------------------------3--3--1-----------3--3--1--3-----------------------------1--3--3--------------1--1--3--------3-----3--1--
G|--------------------------------------------------------------------------------------------------------------------------0--2--------2--2--------------------------------------------------
D|--------------------------------------------------------------------------------------------------------------------------------------------------------------------------------------------
A|--------------------------------------------------------------------------------------------------------------------------------------------------------------------------------------------
E|--------------------------------------------------------------------------------------------------------------------------------------------------------------------------------------------
   one       call away   
E|--------------0--0-----\
B|--1--------3-----------
G|-----------------------
D|-----------------------
A|-----------------------
E|-----------------------

Paste any tab in acousterr's tab maker and we'll play it !!!
Now supports capo and sound effects for vibrato/pull-off/hammer/bends/mutes etc !!! Checkout help section
tabs and chords, guitar tabs, music transcription, music technology, deep learning, music information retrieval, transcribe into tabs & chords, chordify, music renditions, songsterr, reverbnation, tabulature, bollywood chords, ultimate guitar, yousician, guitar lessons, acoustic guitar, electric guitar, guitar tuner, 911 tabs