Guitar Tabs for On The Radio

Tuning: E A D G B E
BPM : 250
Lyrics are on the top of each bar that has any.

Notes: Obviously this song isn't in 250 beats, I really think you should just interpret the tab yourself with your
knowledge of how the song sounds and feels. You can also be creative with the small solo/lead bit, play around with
the phrases a little. I just wanted to make a simple tab because I couldn't find one anywhere and I love Red Vox and
this song is just really cool. Any beginner could easily play this entire song all the way through with some practice.
- Kurt

Rhythm

E|--------------------------------------------------------------------------------------------------------
B|--------------------------------------------------------------------------------------------------------
G|--------------------------------------------------------------------------------------------------------
D|--------------------------------------------------------4-----4-----4--2--4--4--2-----2-----2--2--------
A|--2-----4-----4-----4--2--4--2--4-----4-----4--2--4--2--------------------------------------------2--2--
E|--------------------------------------------------------------------------------------------------------

          Is there a point to the lies you create?        You're just waistin' time,
E|--------------------------------------------------------------------------------------------------
B|--------------------------------------------------------------------------------------------------
G|--------------------------------------------------------------------------------------------------
D|--------------------------------------------------4-----4-----4--2--4--4--2-----2-----2--2--------
A|--4-----4-----4--2--4--2--4-----4-----4--2--4--2--------------------------------------------2--2--
E|--------------------------------------------------------------------------------------------------

          It can't die if it's already fake,              A look in the eye,
E|--------------------------------------------------------------------------------------------------
B|--------------------------------------------------------------------------------------------------
G|--------------------------------------------------------------------------------------------------
D|--------------------------------------------------4-----4-----4--2--4--4--2-----2-----2--2--------
A|--4-----4-----4--2--4--2--4-----4-----4--2--4--2--------------------------------------------2--2--
E|--------------------------------------------------------------------------------------------------

       So concieted,           So alone,                  Can't waste my time, we're never home,
E|--------------------------------------------------------------------------------------------------
B|--------------------------------------------------------------------------------------------------
G|--------------------------------------------------------------------------------------------------
D|--------------------------------------------------4-----4-----4--2--4--4--2-----2-----2--2--------
A|--4--------------4--2--2--4--------------4--2--4--------------------------------------------2--2--
E|--------------------------------------------------------------------------------------------------

       Gotta see it,           Gotta go,                  You got time, but you never know where it goes,
E|--------------------------------------------------------------------------------------------------
B|--------------------------------------------------------------------------------------------------
G|--------------------------------------------------------------------------------------------------
D|--------------------------------------------------4-----4-----4--2--4--4--2-----2-----2--2--------
A|--4--------------4--2--2--4--------------4--2--4--------------------------------------------2--2--
E|--------------------------------------------------------------------------------------------------

oohs and aahs
E|--------------------------------------------------------------------------------------------------
B|--------------------------------------------------------------------------------------------------
G|--------------------------------------------------------------------------------------------------
D|--------------------------------------------------4-----4-----4--2--4--4--2-----2-----2--2--------
A|--4-----4-----4--2--4--2--4-----4-----4--2--4--2--------------------------------------------2--2--
E|--------------------------------------------------------------------------------------------------

oohs and aahs
E|--------------------------------------------------------------------------------------------------
B|--------------------------------------------------------------------------------------------------
G|--------------------------------------------------------------------------------------------------
D|--------------------------------------------------4-----4-----4--2--4--4--2-----2-----2--2--------
A|--4-----4-----4--2--4--2--4-----4-----4--2--4--2--------------------------------------------2--2--
E|--------------------------------------------------------------------------------------------------

          Is there a point to the lies you create?        You're just wastin' my time,
E|--------------------------------------------------------------------------------------------------
B|--------------------------------------------------------------------------------------------------
G|--------------------------------------------------------------------------------------------------
D|--------------------------------------------------4-----4-----4--2--4--4--2-----2-----2--2--------
A|--4-----4-----4--2--4--2--4-----4-----4--2--4--2--------------------------------------------2--2--
E|--------------------------------------------------------------------------------------------------

          It can't die if it's already fake,              A look in the eye,
E|--------------------------------------------------------------------------------------------------
B|--------------------------------------------------------------------------------------------------
G|--------------------------------------------------------------------------------------------------
D|--------------------------------------------------4-----4-----4--2--4--4--2-----2-----2--2--------
A|--4-----4-----4--2--4--2--4-----4-----4--2--4--2--------------------------------------------2--2--
E|--------------------------------------------------------------------------------------------------

       So concieted,           So alone,                  Can't waste my time if I'm never home,
E|--------------------------------------------------------------------------------------------------
B|--------------------------------------------------------------------------------------------------
G|--------------------------------------------------------------------------------------------------
D|--------------------------------------------------4-----4-----4--2--4--4--2-----2-----2--2--------
A|--4--------------4--2--2--4--------------4--2--4--------------------------------------------2--2--
E|--------------------------------------------------------------------------------------------------

       Gotta see it,           Gotta go,                  Get hurt by the things that you never know,
E|--------------------------------------------------------------------------------------------------
B|--------------------------------------------------------------------------------------------------
G|--------------------------------------------------------------------------------------------------
D|--------------------------------------------------4-----4-----4--2--4--4--2-----2-----2--2--------
A|--4--------------4--2--2--4--------------4--2--4--------------------------------------------2--2--
E|--------------------------------------------------------------------------------------------------

    Can't get hurt by the things that you never know,
E|-----------------------------------------------------------------------------------------
B|-----------------------------------------------------------------------------------------
G|-----------------------------------------------------------------------------------------
D|--4-----4-----4--2--4--4--2-----2-----2--2-----------------------------------------------
A|--------------------------------------------2--2--4--------------------------------------
E|-----------------------------------------------------------------------------------------

                Solo start
E|--------------------------------------------------------------------------------------------------------
B|--------------------------------------------------------------------------------------------------------
G|--------------------------------------------------------------------------------------------------------
D|--------------------------------------------------------4-----4-----4--2--4--4--2-----2-----2--2--------
A|--2-----4-----4-----4--2--4--2--4-----4-----4--2--4--2--------------------------------------------2--2--
E|--------------------------------------------------------------------------------------------------------

                                                                            Solo end
E|--------------------------------------------------------------------------------------------------
B|--------------------------------------------------------------------------------------------------
G|--------------------------------------------------------------------------------------------------
D|--------------------------------------------------4-----4-----4--2--4--4--2-----2-----2--2--------
A|--4-----4-----4--2--4--2--4-----4-----4--2--4--2--------------------------------------------2--2--
E|--------------------------------------------------------------------------------------------------

E|--------------------------------------------------------------------------------------------------
B|--------------------------------------------------------------------------------------------------
G|--------------------------------------------------------------------------------------------------
D|--------------------------------------------------4-----4-----4--2--4--4--2-----2-----2--2--------
A|--4-----4-----4--2--4--2--4-----4-----4--2--4--2--------------------------------------------2--2--
E|--------------------------------------------------------------------------------------------------

          It can't die if it's already fake,              A look in the eye,
E|--------------------------------------------------------------------------------------------------
B|--------------------------------------------------------------------------------------------------
G|--------------------------------------------------------------------------------------------------
D|--------------------------------------------------4-----4-----4--2--4--4--2-----2-----2--2--------
A|--4-----4-----4--2--4--2--4-----4-----4--2--4--2--------------------------------------------2--2--
E|--------------------------------------------------------------------------------------------------

       So concieted,           So alone,                  Can't waste my time if I'm never home,
E|--------------------------------------------------------------------------------------------------
B|--------------------------------------------------------------------------------------------------
G|--------------------------------------------------------------------------------------------------
D|--------------------------------------------------4-----4-----4--2--4--4--2-----2-----2--2--------
A|--4--------------4--2--2--4--------------4--2--4--------------------------------------------2--2--
E|--------------------------------------------------------------------------------------------------

       Gotta see it,           Gotta go,                  You got time but you never have nowhere to go,
E|--------------------------------------------------------------------------------------------------
B|--------------------------------------------------------------------------------------------------
G|--------------------------------------------------------------------------------------------------
D|--------------------------------------------------4-----4-----4--2--4--4--2-----2-----2--2--------
A|--4--------------4--2--2--4--------------4--2--4--------------------------------------------2--2--
E|--------------------------------------------------------------------------------------------------

    Can't get hurt by the things that you never know
E|-----------------------------------------------------------------------------------------------------
B|-----------------------------------------------------------------------------------------------------
G|-----------------------------------------------------------------------------------------------------
D|--4-----4-----4--2--4--4--2-----2-----2--2-----------------------------------------------------------
A|--------------------------------------------2--2--4--------------4--2--2--4--------------4--2--2--4--
E|-----------------------------------------------------------------------------------------------------

E|-----------------------------------------------------------------------------------------------------
B|-----------------------------------------------------------------------------------------------------
G|-----------------------------------------------------------------------------------------------------
D|--------------------------------------2--4--6--7-----7-----7--6--7--6--4-----4-----4--2--4--4--2-----
A|--------------4--2--2--4-----------------------------------------------------------------------------
E|-----------------------------------------------------------------------------------------------------

E|--------------------------------------------------------------------------------------------------
B|--------------------------------------------------------------------------------------------------
G|--------------------------------------------------------------------------------------------------
D|--2-----2--2-----------------------2--4--6--7-----7-----7--6--7--6--4-----4-----4--2--4--4--2-----
A|--------------2--2--4-----4-----4-----------------------------------------------------------------
E|--------------------------------------------------------------------------------------------------

E|-----------------------------------------------------------------------------------------------
B|-----------------------------------------------------------------------------------------------
G|-----------------------------------------------------------------------------------------------
D|--2-----2--2-----------------------------------------------------------------------------------
A|--------------2--2--4--------------4--2--2--4--------------4--2--2--4--------------4--2--2--4--
E|-----------------------------------------------------------------------------------------------

E|-----------------------------------------------------------------------------------------------
B|-----------------------------------------------------------------------------------------------
G|-----------------------------------------------------------------------------------------------
D|--------------2--4--6--7-----7-----7--6--7--6--4-----4-----4--2--4--4--2-----2-----2--2--------
A|-----------------------------------------------------------------------------------------2--2--
E|-----------------------------------------------------------------------------------------------

E|--------------------------------------------------------------------------------------
B|--------------------------------------------------------------------------------------
G|--------------------------------------------------------------------------------------
D|-----------------2--4--6--7-----7-----7--6--7--6--4-----4-----4--2--4--4--2-----2-----
A|--4-----4-----4-----------------------------------------------------------------------
E|--------------------------------------------------------------------------------------

E|-----------------------------------------------------------------------------------------
B|-----------------------------------------------------------------------------------------
G|-----------------------------------------------------------------------------------------
D|--2--2-----------------------------------------------------------------------------------
A|--------2--2--4--------------4--2--2--4--------------4--2--2--4--------------4--2--2--4--
E|-----------------------------------------------------------------------------------------

E|--------------------------
B|--------------------------
G|--------------------------
D|--------------------------
A|--------------4--2--2--4--
E|--------------------------

Bass Tabs for On The Radio











G|--------------------------------------------------------------------------------------------------------
D|--------------------------------------------------------4-----4-----4--2--4--4--2-----2-----2--2--------
A|--2-----4-----4-----4--2--4--2--4-----4-----4--2--4--2--------------------------------------------2--2--
E|--------------------------------------------------------------------------------------------------------




G|--------------------------------------------------------------------------------------------------
D|--------------------------------------------------4-----4-----4--2--4--4--2-----2-----2--2--------
A|--4-----4-----4--2--4--2--4-----4-----4--2--4--2--------------------------------------------2--2--
E|--------------------------------------------------------------------------------------------------




G|--------------------------------------------------------------------------------------------------
D|--------------------------------------------------4-----4-----4--2--4--4--2-----2-----2--2--------
A|--4-----4-----4--2--4--2--4-----4-----4--2--4--2--------------------------------------------2--2--
E|--------------------------------------------------------------------------------------------------




G|--------------------------------------------------------------------------------------------------
D|--------------------------------------------------4-----4-----4--2--4--4--2-----2-----2--2--------
A|--4--------------4--2--2--4--------------4--2--4--------------------------------------------2--2--
E|--------------------------------------------------------------------------------------------------




G|--------------------------------------------------------------------------------------------------
D|--------------------------------------------------4-----4-----4--2--4--4--2-----2-----2--2--------
A|--4--------------4--2--2--4--------------4--2--4--------------------------------------------2--2--
E|--------------------------------------------------------------------------------------------------




G|--------------------------------------------------------------------------------------------------
D|--------------------------------------------------4-----4-----4--2--4--4--2-----2-----2--2--------
A|--4-----4-----4--2--4--2--4-----4-----4--2--4--2--------------------------------------------2--2--
E|--------------------------------------------------------------------------------------------------




G|--------------------------------------------------------------------------------------------------
D|--------------------------------------------------4-----4-----4--2--4--4--2-----2-----2--2--------
A|--4-----4-----4--2--4--2--4-----4-----4--2--4--2--------------------------------------------2--2--
E|--------------------------------------------------------------------------------------------------




G|--------------------------------------------------------------------------------------------------
D|--------------------------------------------------4-----4-----4--2--4--4--2-----2-----2--2--------
A|--4-----4-----4--2--4--2--4-----4-----4--2--4--2--------------------------------------------2--2--
E|--------------------------------------------------------------------------------------------------




G|--------------------------------------------------------------------------------------------------
D|--------------------------------------------------4-----4-----4--2--4--4--2-----2-----2--2--------
A|--4-----4-----4--2--4--2--4-----4-----4--2--4--2--------------------------------------------2--2--
E|--------------------------------------------------------------------------------------------------




G|--------------------------------------------------------------------------------------------------
D|--------------------------------------------------4-----4-----4--2--4--4--2-----2-----2--2--------
A|--4--------------4--2--2--4--------------4--2--4--------------------------------------------2--2--
E|--------------------------------------------------------------------------------------------------




G|--------------------------------------------------------------------------------------------------
D|--------------------------------------------------4-----4-----4--2--4--4--2-----2-----2--2--------
A|--4--------------4--2--2--4--------------4--2--4--------------------------------------------2--2--
E|--------------------------------------------------------------------------------------------------




G|-----------------------------------------------------------------------------------------
D|--4-----4-----4--2--4--4--2-----2-----2--2-----------------------------------------------
A|--------------------------------------------2--2--4--------------------------------------
E|-----------------------------------------------------------------------------------------




G|--------------------------------------------------------------------------------------------------------
D|--------------------------------------------------------4-----4-----4--2--4--4--2-----2-----2--2--------
A|--2-----4-----4-----4--2--4--2--4-----4-----4--2--4--2--------------------------------------------2--2--
E|--------------------------------------------------------------------------------------------------------




G|--------------------------------------------------------------------------------------------------
D|--------------------------------------------------4-----4-----4--2--4--4--2-----2-----2--2--------
A|--4-----4-----4--2--4--2--4-----4-----4--2--4--2--------------------------------------------2--2--
E|--------------------------------------------------------------------------------------------------



G|--------------------------------------------------------------------------------------------------
D|--------------------------------------------------4-----4-----4--2--4--4--2-----2-----2--2--------
A|--4-----4-----4--2--4--2--4-----4-----4--2--4--2--------------------------------------------2--2--
E|--------------------------------------------------------------------------------------------------




G|--------------------------------------------------------------------------------------------------
D|--------------------------------------------------4-----4-----4--2--4--4--2-----2-----2--2--------
A|--4-----4-----4--2--4--2--4-----4-----4--2--4--2--------------------------------------------2--2--
E|--------------------------------------------------------------------------------------------------




G|--------------------------------------------------------------------------------------------------
D|--------------------------------------------------4-----4-----4--2--4--4--2-----2-----2--2--------
A|--4--------------4--2--2--4--------------4--2--4--------------------------------------------2--2--
E|--------------------------------------------------------------------------------------------------




G|--------------------------------------------------------------------------------------------------
D|--------------------------------------------------4-----4-----4--2--4--4--2-----2-----2--2--------
A|--4--------------4--2--2--4--------------4--2--4--------------------------------------------2--2--
E|--------------------------------------------------------------------------------------------------




G|-----------------------------------------------------------------------------------------------------
D|--4-----4-----4--2--4--4--2-----2-----2--2-----------------------------------------------------------
A|--------------------------------------------2--2--4--------------4--2--2--4--------------4--2--2--4--
E|-----------------------------------------------------------------------------------------------------



G|--------------------------------------------1--2-----2-----2--1--2--1--------------------------------
D|--------------------------------------2--4-----------------------------4-----4-----4--2--4--4--2-----
A|--------------4--2--2--4-----------------------------------------------------------------------------
E|-----------------------------------------------------------------------------------------------------



G|-----------------------------------------1--2-----2-----2--1--2--1--------------------------------
D|--2-----2--2-----------------------2--4-----------------------------4-----4-----4--2--4--4--2-----
A|--------------2--2--4-----4-----4-----------------------------------------------------------------
E|--------------------------------------------------------------------------------------------------



G|-----------------------------------------------------------------------------------------------
D|--2-----2--2-----------------------------------------------------------------------------------
A|--------------2--2--4--------------4--2--2--4--------------4--2--2--4--------------4--2--2--4--
E|-----------------------------------------------------------------------------------------------



G|--------------------1--2-----2-----2--1--2--1--------------------------------------------------
D|--------------2--4-----------------------------4-----4-----4--2--4--4--2-----2-----2--2--------
A|-----------------------------------------------------------------------------------------2--2--
E|-----------------------------------------------------------------------------------------------



G|-----------------------1--2-----2-----2--1--2--1--------------------------------------
D|-----------------2--4-----------------------------4-----4-----4--2--4--4--2-----2-----
A|--4-----4-----4-----------------------------------------------------------------------
E|--------------------------------------------------------------------------------------



G|-----------------------------------------------------------------------------------------
D|--2--2-----------------------------------------------------------------------------------
A|--------2--2--4--------------4--2--2--4--------------4--2--2--4--------------4--2--2--4--
E|-----------------------------------------------------------------------------------------



G|--------------------------
D|--------------------------
A|--------------4--2--2--4--
E|--------------------------

Guitar Tabs for On The Radio











E|--
B|--
G|--
D|--
A|--
E|--


E|--
B|--
G|--
D|--
A|--
E|--


E|--
B|--
G|--
D|--
A|--
E|--


E|--
B|--
G|--
D|--
A|--
E|--


E|--
B|--
G|--
D|--
A|--
E|--


E|--
B|--
G|--
D|--
A|--
E|--


E|--
B|--
G|--
D|--
A|--
E|--


E|--
B|--
G|--
D|--
A|--
E|--


E|--
B|--
G|--
D|--
A|--
E|--


E|--
B|--
G|--
D|--
A|--
E|--


E|--
B|--
G|--
D|--
A|--
E|--


E|--
B|--
G|--
D|--
A|--
E|--


E|--------------9-----------------------------------------------9-----------------------------------------
B|-----------------9-----------------------------------------------9--------------------------------------
G|-----------------------9--------11----11-------------------------------9--------11----11----------------
D|--------------------------------------------9--9--11----------------------------------------9-----------
A|--------------------------------------------------------------------------------------------------------
E|--------------------------------------------------------------------------------------------------------


E|--------9-----------------------------------------------9--------------------
B|-----------9-----------------------------------------------9-----------------
G|-----------------9--------11----11-------------------------------9--------11-
D|--------------------------------------9-----11-------------------------------
A|-----------------------------------------------------------------------------
E|-----------------------------------------------------------------------------

E|--
B|--
G|--
D|--
A|--
E|--


E|--
B|--
G|--
D|--
A|--
E|--


E|--
B|--
G|--
D|--
A|--
E|--


E|--
B|--
G|--
D|--
A|--
E|--


E|--
B|--
G|--
D|--
A|--
E|--

E|--
B|--
G|--
D|--
A|--
E|--

E|--
B|--
G|--
D|--
A|--
E|--

E|--
B|--
G|--
D|--
A|--
E|--

E|--
B|--
G|--
D|--
A|--
E|--

E|--
B|--
G|--
D|--
A|--
E|--

E|--
B|--
G|--
D|--
A|--
E|--

E|--
B|--
G|--
D|--
A|--
E|--



E|--
B|--
G|--
D|--
A|--
E|--

E|--
B|--
G|--
D|--
A|--
E|--

E|--
B|--
G|--
D|--
A|--
E|--

E|--
B|--
G|--
D|--
A|--
E|--

tabs and chords, guitar tabs, music transcription, music technology, deep learning, music information retrieval, transcribe into tabs & chords, chordify, music renditions, songsterr, reverbnation, tabulature, bollywood chords, ultimate guitar, yousician, guitar lessons, acoustic guitar, electric guitar, guitar tuner, 911 tabs