On The Hunt - Lynyrd Skynyrd - Guitar Tabs

Ed King
    
                                                                                                                                                                                                                                                                                                                                                                                                                                                                                                                                                                                                                                                                                                                                                                                                                                                                                                                                                                                                                                                                                                                                                                                              
E|----------------------------------------|--------------------------------|
B|----------------------------------------|--------------------------------|
G|--4--------------------------------x----|4--x----------------------------|
D|--4-----------4--------2-----------x----|4--x--------4--------2----------|
A|--2-----2--5------5/4--0----------------|2-----2--5------5/4--0----------|
E|--------------------------4--(4)0-----0-|--------------------------------|

    
                                                                                                                                                                                                                                                                                                                                                                                                                                                                                                                                                                                                                                                                                                                                                                                                                                                                                                                                                                                                                                                                                                                                                                                              
E|----------------------------------------|--------------------------------|
B|----------------------------------------|--------------------------------|
G|--4--------------------------------x----|4--x--------------------------7-|
D|--4-----------4--------2-----------x----|4--x--------4--------2----------|
A|--2-----2--5------5/4--0----------------|2-----2--5------5/4--0---2/9----|
E|--------------------------4--(4)0-----0-|--------------------------------|

    
                                                                                                                                                                                                                                                                                                                                                                                                                                                                                                                                                                                                                                                                                                                                                                                                                                                                                                                                                                                                                                                                                                                                                                                              
E|----------------------------------------|--------------------------------|
B|-----------------------------------x----|--------------------------------|
G|--4--------------------------------x----|4--x----------------------------|
D|--4-----------4--------------------x----|4--x--------4--------2----------|
A|--2-----2--5------5/4--0----------------|2-----2--5------5/4--0----------|
E|--------------------------4--(4)0-----0-|--------------------------------|

    
                                                                                                                                                                                                                                                                                                                                                                                                                                                                                                                                                                                                                                                                                                                                                                                                                                                                                                                                                                                                                                                                                                                                                                                              
E|----------------------------------------|--------------------------------|
B|----------------------------------------|--------------------------------|
G|--4--------------------------------x----|4--x----------------------------|
D|--4-----------4--------2-----------x----|4--x--------4--------2----------|
A|--2-----2--5------5/4--0----------------|2-----2--5------5/4--0----------|
E|--------------------------4--(4)0-----0-|--------------------------------|

    
                                                                                                                                                                                                                                                                                                                                                                                                                                                                                                                                                                                                                                                                                                                                                                                                                                                                                                                                                                                                                                                                                                                                                                                              
E|----------------------------------------|-----------------------------------|
B|----------------------------------------|-----------------------------------|
G|--4--------------------------------x----|4-----------------------------x----|
D|--4-----------4--------2-----------x----|4-----------4--------2--------x----|
A|--2-----2--5------5/4--0----------------|2-----2--5------5/4--0-------------|
E|--------------------------4--(4)0-----0-|---------------------------------0-|

    
                                                                                                                                                                                                                                                                                                                                                                                                                                                                                                                                                                                                                                                                                                                                                                                                                                                                                                                                                                                                                                                                                                                                                                                              
E|----------------------------------------|-----------------------------------|
B|----------------------------------------|-----------------------------------|
G|--4--------------------------------x----|4----------------------------------|
D|--4-----------4--------2-----------x----|4-----------4--------2-------------|
A|--2-----2--5------5/4--0----------------|2-----2--5------5/4--0-------------|
E|--------------------------4--(4)0-----0-|------------------------------x--0-|

    
                                                                                                                                                                                                                                                                                                                                                                                                                                                                                                                                                                                                                                                                                                                                                                                                                                                                                                                                                                                                                                                                                                                                                                                              
E|----------------------------------------|--------------------------------|
B|----------------------------------------|--------------------------------|
G|--4--------------------------------x----|4--x----------------------------|
D|--4-----------4--------2-----------x----|4--x--------4--------2----------|
A|--2-----2--5------5/4--0----------------|2-----2--5------5/4--0----------|
E|--------------------------4--(4)0-----0-|--------------------------------|

    
                                                                                                                                                                                                                                                                                                                                                                                                                                                                                                                                                                                                                                                                                                                                                                                                                                                                                                                                                                                                                                                                                                                                                                                              
E|----------------------------------------|-----------------------------------|
B|----------------------------------------|-----------------------------------|
G|--4--------------------------------x----|4----------------------------------|
D|--4-----------4--------2-----------x----|4-----------4--------2-------------|
A|--2-----2--5------5/4--0----------------|2-----2--5------5/4--0-------------|
E|--------------------------4--(4)0-----0-|---------------------------5--4--0-|

    
                                                                                                                                                                                                                                                                                                                                                                                                                                                                                                                                                                                                                                                                                                                                                                                                                                                                                                                                                                                                                                                                                                                                                                                              
E|-------------------------|--------------------------------|
B|-------------------------|--------------------------------|
G|--9-----4----------------|7-------------------------------|
D|--9-----4----------------|7-----2-------------------------|
A|--7-----2----------------|5-----0--0--0--0--0--4--2-------|
E|--0----------------------|5-------------------------------|

    
                                                                                                                                                                                                                                                                                                                                                                                                                                                                                                                                                                                                                                                                                                                                                                                                                                                                                                                                                                                                                                                                                                                                                                                              
E|----------------------------|-----------------------------|
B|----------------------------|-----------------------------|
G|--9--(9)------4--(4)--------|7--(7)-----------------------|
D|--9--(9)------4--(4)4)/---7-|7--(7)------2----------------|
A|--7--(7)------2--(2)--------|5--(5)------0-----0----------|
E|--0--(0)--------------------|5--(5)---------------3-----3-|

    
                                                                                                                                                                                                                                                                                                                                                                                                                                                                                                                                                                                                                                                                                                                                                                                                                                                                                                                                                                                                                                                                                                                                                                                              
E|----------------------------------------|--------------------------------|
B|----------------------------------------|--------------------------------|
G|--4--------------------------------x----|4--x----------------------------|
D|--4-----------4--------2-----------x----|4--x--------4--------2----------|
A|--2-----2--5------5/4--0----------------|2-----2--5------5/4--0----------|
E|--------------------------4--(4)0-----0-|--------------------------------|

    
                                                                                                                                                                                                                                                                                                                                                                                                                                                                                                                                                                                                                                                                                                                                                                                                                                                                                                                                                                                                                                                                                                                                                                                              
E|----------------------------------------|--------------------------------|
B|----------------------------------------|--------------------------------|
G|--4--------------------------------x----|4--x----------------------------|
D|--4-----------4--------2-----------x----|4--x--------4--------2----------|
A|--2-----2--5------5/4--0----------------|2-----2--5------5/4--0----------|
E|--------------------------4--(4)0-----0-|--------------------------------|

    
                                                                                                                                                                                                                                                                                                                                                                                                                                                                                                                                                                                                                                                                                                                                                                                                                                                                                                                                                                                                                                                                                                                                                                                              
E|----------------------------------------|-----------------------------------|
B|----------------------------------------|-----------------------------------|
G|--4--------------------------------x----|4-----------------------------x----|
D|--4-----------4--------2-----------x----|4-----------4--------2--------x----|
A|--2-----2--5------5/4--0----------------|2-----2--5------5/4--0-------------|
E|--------------------------4--(4)0-----0-|---------------------------------0-|

    
                                                                                                                                                                                                                                                                                                                                                                                                                                                                                                                                                                                                                                                                                                                                                                                                                                                                                                                                                                                                                                                                                                                                                                                              
E|----------------------------------------|-----------------------------------|
B|----------------------------------------|-----------------------------------|
G|--4--------------------------------x----|4----------------------------------|
D|--4-----------4--------2-----------x----|4-----------4--------2-------------|
A|--2-----2--5------5/4--0----------------|2-----2--5------5/4--0-------------|
E|--------------------------4--(4)0-----0-|------------------------------x--0-|

    
                                                                                                                                                                                                                                                                                                                                                                                                                                                                                                                                                                                                                                                                                                                                                                                                                                                                                                                                                                                                                                                                                                                                                                                              
E|----------------------------------------|--------------------------------|
B|----------------------------------------|--------------------------------|
G|--4--------------------------------x----|4--x----------------------------|
D|--4-----------4--------2-----------x----|4--x--------4--------2----------|
A|--2-----2--5------5/4--0----------------|2-----2--5------5/4--0----------|
E|--------------------------4--(4)0-----0-|--------------------------------|

    
                                                                                                                                                                                                                                                                                                                                                                                                                                                                                                                                                                                                                                                                                                                                                                                                                                                                                                                                                                                                                                                                                                                                                                                              
E|----------------------------------------|-----------------------------------|
B|----------------------------------------|-----------------------------------|
G|--4--------------------------------x----|4----------------------------------|
D|--4-----------4--------2-----------x----|4-----------4--------2-------------|
A|--2-----2--5------5/4--0----------------|2-----2--5------5/4--0-------------|
E|--------------------------4--(4)0-----0-|---------------------------5--4--0-|

    
                                                                                                                                                                                                                                                                                                                                                                                                                                                                                                                                                                                                                                                                                                                                                                                                                                                                                                                                                                                                                                                                                                                                                                                              
E|-------------------------|--------------------------------|
B|-------------------------|--------------------------------|
G|--9-----4----------------|7-------------------------------|
D|--9-----4----------------|7-----2-------------------------|
A|--7-----2----------------|5-----0--0--0--0--0--4--2-------|
E|--0----------------------|5-------------------------------|

    
                                                                                                                                                                                                                                                                                                                                                                                                                                                                                                                                                                                                                                                                                                                                                                                                                                                                                                                                                                                                                                                                                                                                                                                              
E|----------------------------|-----------------------------|
B|----------------------------|-----------------------------|
G|--9--(9)------4--(4)--------|7--(7)-----------------------|
D|--9--(9)------4--(4)4)/---7-|7--(7)------2----------------|
A|--7--(7)------2--(2)--------|5--(5)------0-----0----------|
E|--0--(0)--------------------|5--(5)---------------3-----3-|

    
                                                                                                                                                                                                                                                                                                                                                                                                                                                                                                                                                                                                                                                                                                                                                                                                                                                                                                                                                                                                                                                                                                                                                                                              
E|----------------------------------------|--------------------------------|
B|----------------------------------------|--------------------------------|
G|--4--------------------------------x----|4--x----------------------------|
D|--4-----------4--------2-----------x----|4--x--------4--------2----------|
A|--2-----2--5------5/4--0----------------|2-----2--5------5/4--0----------|
E|--------------------------4--(4)0-----0-|--------------------------------|

    
                                                                                                                                                                                                                                                                                                                                                                                                                                                                                                                                                                                                                                                                                                                                                                                                                                                                                                                                                                                                                                                                                                                                                                                              
E|----------------------------------------|--------------------------------|
B|----------------------------------------|--------------------------------|
G|--4--------------------------------x----|4--x----------------------------|
D|--4-----------4--------2-----------x----|4--x--------4--------2----------|
A|--2-----2--5------5/4--0----------------|2-----2--5------5/4--0----------|
E|--------------------------4--(4)0-----0-|--------------------------------|

    
                                                                                                                                                                                                                                                                                                                                                                                                                                                                                                                                                                                                                                                                                                                                                                                                                                                                                                                                                                                                                                                                                                                                                                                              
E|-------------------------------------|-----------------------------------------|
B|-----------------------3-------------|-----------------------------------------|
G|-----------------------2-------------|------------------------0----------------|
D|--2--4-----2--4-----x--------2--2----|---------------------0-----2--2--2-----2-|
A|--0--2-----0--2-----x--------0--0----|2-----2--2-----2-----------0--0--0-----0-|
E|-------------------------------------|0-----0--0-----0--3----------------------|

    
                                                                                                                                                                                                                                                                                                                                                                                                                                                                                                                                                                                                                                                                                                                                                                                                                                                                                                                                                                                                                                                                                                                                                                                              
E|-------------------------------------|-----------------------------------------|
B|-----------------------3-------------|-----------------------------------------|
G|-----------------------2-------------|------------------------0----------------|
D|--2--4-----2--4-----x--------2--2----|---------------------0-----2--2--2-----2-|
A|--0--2-----0--2-----x--------0--0----|2-----2--2-----2-----------0--0--0-----0-|
E|-------------------------------------|0-----0--0-----0--3----------------------|

    
                                                                                                                                                                                                                                                                                                                                                                                                                                                                                                                                                                                                                                                                                                                                                                                                                                                                                                                                                                                                                                                                                                                                                                                              
E|-------------------------------------|-----------------------------------------|
B|-----------------------3-------------|-----------------------------------------|
G|-----------------------2-------------|------------------------0----------------|
D|--2--4-----2--4-----x--------2--2----|---------------------0-----2--2--2-----2-|
A|--0--2-----0--2-----x--------0--0----|2-----2--2-----2-----------0--0--0-----0-|
E|-------------------------------------|0-----0--0-----0--3----------------------|

    
                                                                                                                                                                                                                                                                                                                                                                                                                                                                                                                                                                                                                                                                                                                                                                                                                                                                                                                                                                                                                                                                                                                                                                                              
E|-------------------------------------|-----------------------------------------|
B|-----------------------3-------------|-----------------------------------------|
G|-----------------------2-------------|------------------------0----------------|
D|--2--4-----2--4-----x--------2--2----|---------------------0-----2--2--2-----2-|
A|--0--2-----0--2-----x--------0--0----|2-----2--2-----2-----------0--0--0-----0-|
E|-------------------------------------|0-----0--0-----0--3----------------------|

    
                                                                                                                                                                                                                                                                                                                                                                                                                                                                                                                                                                                                                                                                                                                                                                                                                                                                                                                                                                                                                                                                                                                                                                                              
E|-------------------------|-----------------------------|
B|-------------------------|3----------------------------|
G|-------------------------|2----------------------------|
D|--4----------------------|------2--2--2--2--2--2-------|
A|--2-----2----------------|------0--0--0--0--0--0-------|
E|--------0----------------|-----------------------------|

    
                                                                                                                                                                                                                                                                                                                                                                                                                                                                                                                                                                                                                                                                                                                                                                                                                                                                                                                                                                                                                                                                                                                                                                                              
E|-------------------------|--------------------------|
B|-------------------------|3-------------------------|
G|-------------------------|2-------------------------|
D|--------4----------------|------2-------------------|
A|--2-----2----------------|------0-------------------|
E|--0----------------------|---------------3----------|

    
                                                                                                                                                                                                                                                                                                                                                                                                                                                                                                                                                                                                                                                                                                                                                                                                                                                                                                                                                                                                                                                                                                                                                                                              
E|----------------------------------------|--------------------------------|
B|----------------------------------------|--------------------------------|
G|--4--------------------------------x----|4--x----------------------------|
D|--4-----------4--------2-----------x----|4--x--------4--------2----------|
A|--2-----2--5------5/4--0----------------|2-----2--5------5/4--0----------|
E|--------------------------4--(4)0-----0-|--------------------------------|

    
                                                                                                                                                                                                                                                                                                                                                                                                                                                                                                                                                                                                                                                                                                                                                                                                                                                                                                                                                                                                                                                                                                                                                                                              
E|----------------------------------------|--------------------------------|
B|----------------------------------------|--------------------------------|
G|--4--------------------------------x----|4--x----------------------------|
D|--4-----------4--------2-----------x----|4--x--------4--------2----------|
A|--2-----2--5------5/4--0----------------|2-----2--5------5/4--0----------|
E|--------------------------4--(4)0-----0-|--------------------------------|

    
                                                                                                                                                                                                                                                                                                                                                                                                                                                                                                                                                                                                                                                                                                                                                                                                                                                                                                                                                                                                                                                                                                                                                                                              
E|----------------------------------------|-----------------------------------|
B|----------------------------------------|-----------------------------------|
G|--4--------------------------------x----|4-----------------------------x----|
D|--4-----------4--------2-----------x----|4-----------4--------2--------x----|
A|--2-----2--5------5/4--0----------------|2-----2--5------5/4--0-------------|
E|--------------------------4--(4)0-----0-|---------------------------------0-|

    
                                                                                                                                                                                                                                                                                                                                                                                                                                                                                                                                                                                                                                                                                                                                                                                                                                                                                                                                                                                                                                                                                                                                                                                              
E|----------------------------------------|-----------------------------------|
B|----------------------------------------|-----------------------------------|
G|--4--------------------------------x----|4----------------------------------|
D|--4-----------4--------2-----------x----|4-----------4----------------------|
A|--2-----2--5------5/4--0----------------|2-----2--5------5/4--7---------5p4-|
E|--------------------------4--(4)0-----0-|-----------------------------------|

About Nuthin' Fancy : Nuthin' Fancy is the third studio album by the Southern rock band Lynyrd Skynyrd . It was their first to reach the Top 10, peaking at #9 on the U.S. album chart . Nuthin' Fancy's most popular songs include Torture Tour. It had a contribution from notable artists like Artimus Pyle,Ed King left the. It had an affiliation to bands - Nuthin' Fancy,Lynyrd Skynyrd. Its music is influenced by genres - southern rock , blues rock , boogie rock , hard rock.

tabs and chords, guitar tabs, music transcription, music technology, deep learning, music information retrieval, transcribe into tabs & chords, chordify, music renditions, songsterr, reverbnation, tabulature, bollywood chords, ultimate guitar, yousician, guitar lessons, acoustic guitar, electric guitar, guitar tuner, 911 tabs