Bass Tabs for Okay, Everyone (bass)

(/) Slide Up  (\) Slide Down  (h) Hammer On  (p) Pull Off  (b) Bend (r) Release (v) Vibrato (x) Muted

Tabs for Song : 

Song lyrics here
G|--------x-----------x-----------x-----------------------x-----------x-----------x-----------------x--x--x--x--
D|--------x-----0--0--x--2--3--3--x--0--2--2--------------x-----0--0--x--2--3--3--x--0--2--2--------x--x--x--x--
A|--0--0--x--3--------x-----------x-----------3--2--0--0--x--3--------x-----------x-----------3--2--x--x--x--x--
E|--------x-----------x-----------x-----------------------x-----------x-----------x-----------------x--x--x--x--

G|--------------------x-----------x-----------x-----------------------x-----------x-----------x-----------------------
D|--2--2--------------x-----0--0--x--2--3--3--x--0--2--2--------------x-----0--0--x--2--3--3--x--0--2--2--------------
A|--------3--2--0--0--x--3--------x-----------x-----------3--2--0--0--x--3--------x-----------x-----------3--2--0--0--
E|--------------------x-----------x-----------x-----------------------x-----------x-----------x-----------------------

Song lyrics here
G|--
D|--
A|--
E|--

Paste any tab in acousterr's tab maker and we'll play it !!!
Now supports capo and sound effects for vibrato/pull-off/hammer/bends/mutes etc !!! Checkout help section
tabs and chords, guitar tabs, music transcription, music technology, deep learning, music information retrieval, transcribe into tabs & chords, chordify, music renditions, songsterr, reverbnation, tabulature, bollywood chords, ultimate guitar, yousician, guitar lessons, acoustic guitar, electric guitar, guitar tuner, 911 tabs