Guitar Tabs for The Office Theme - Tabs

(/) Slide Up  (\) Slide Down  (h) Hammer On  (p) Pull Off  (b) Bend (r) Release (v) Vibrato

Tabs for Song : 

Song lyrics here
E|--3-----3-----3-----2-----2-----2-----0-----0-----0-----0--0--------------------3-----2--3--2-----0-----------------
B|--3-----3-----3-----3-----3-----3-----0-----0-----0-----1--1--1--0-----0-----------------------3--------1--1--1--0--
G|--4-----4-----4-----4-----4-----4-----0-----0-----0-----0--0--------2-----0-----------------------------------------
D|-----5-----------5-----4-----------4-----2-----------2--------------------------------------------------------------
A|--------------------------------------------------------------------------------------------------------------------
E|--------------------------------------------------------------------------------------------------------------------

E|--------------3-----2--3--5--2--0--------0--------------------------------3-----2--3--2-----0-----------------------
B|-----0--------------------------------3-----3--0--1--1--1--0-----0-----------------------3--------1--1--1--0-----0--
G|--2-----0-----------------------------------------------------2-----0-----------------------------------------2-----
D|--------------------------------------------------------------------------------------------------------------------
A|--------------------------------------------------------------------------------------------------------------------
E|--------------------------------------------------------------------------------------------------------------------

E|--------3-----2--3--5--2--0--------0--------------------------3--
B|--------------------------------3-----3--0--1--1--1--0-----0--0--
G|--0-----------------------------------------------------2-----0--
D|--------------------------------------------------------------0--
A|--------------------------------------------------------------2--
E|--------------------------------------------------------------3--

Song lyrics here
E|--
B|--
G|--
D|--
A|--
E|--

Add more lines by placing cursor below and adding notes
tabs and chords, guitar tabs, music transcription, music technology, deep learning, music information retrieval, transcribe into tabs & chords, chordify, music renditions, songsterr, reverbnation, tabulature, bollywood chords, ultimate guitar, yousician, guitar lessons, acoustic guitar, electric guitar, guitar tuner, 911 tabs