Octupus - Kaveret - Guitar Tabs

Track 1
    
                                                                                                                                                                                                                                                                                                                                                                                                                                                                                                                                                                                                                                                                                                                                                                                                                                                                                                                                                                                                                                                                                                                                                                                              
E|-------------------------|--------------------------|
B|-----------------8-------|8--8--7--5--7--8--------8-|
G|-------------------------|--------------------------|
D|-------------------------|--------------------------|
A|-------------------------|--------------------------|
E|-------------------------|--------------------------|

    
                                                                                                                                                                                                                                                                                                                                                                                                                                                                                                                                                                                                                                                                                                                                                                                                                                                                                                                                                                                                                                                                                                                                                                                              
E|----------------------------|--------------------------|
B|--8--8--7--5--7--8--------8-|8--8--7--5--7--8--8-----5-|
G|----------------------------|---------------------7----|
D|----------------------------|--------------------------|
A|----------------------------|--------------------------|
E|----------------------------|--------------------------|

    
                                                                                                                                                                                                                                                                                                                                                                                                                                                                                                                                                                                                                                                                                                                                                                                                                                                                                                                                                                                                                                                                                                                                                                                              
E|----------------------------|--------------------------|
B|--7--5-----------5--------8-|8--8--7--5--7--8--------8-|
G|--------7--6--7-------------|--------------------------|
D|----------------------------|--------------------------|
A|----------------------------|--------------------------|
E|----------------------------|--------------------------|

    
                                                                                                                                                                                                                                                                                                                                                                                                                                                                                                                                                                                                                                                                                                                                                                                                                                                                                                                                                                                                                                                                                                                                                                                              
E|----------------------------|--------------------------|
B|--8--8--7--5--7--8--------8-|8--8--7--5--7--8--8-----5-|
G|----------------------------|---------------------7----|
D|----------------------------|--------------------------|
A|----------------------------|--------------------------|
E|----------------------------|--------------------------|

    
                                                                                                                                                                                                                                                                                                                                                                                                                                                                                                                                                                                                 
E|----------------------------|
B|--7--5-----------5--------8-|
G|--------7--6--7-------------|
D|----------------------------|
A|----------------------------|
E|----------------------------|

    
                                                                                                                                                                                                                                                                                                                                                                                                                                                                                                                                                                                                                                                                                                                                                                                                                                                                                                                                                                                                                                                                                                                                                                                              
E|--5----------------------|------------5-------------|
B|-----------5--8--8-------|8-----7--5-----------5--8-|
G|-------------------------|------------------7-------|
D|-------------------------|--------------------------|
A|-------------------------|--------------------------|
E|-------------------------|--------------------------|

    
                                                                                                                                                                                                                                                                                                                                                                                                                                                                                                                                                                                                                                                                                                                                                                                                                                                                                                                                                                                                                                                                                                                                                                                              
E|--------5-------------------|---------8-----7-------|
B|--7--------------6--5--6--8-|8-----8-----------8--8-|
G|----------------------------|-----------------------|
D|----------------------------|-----------------------|
A|----------------------------|-----------------------|
E|----------------------------|-----------------------|

    
                                                                                                                                                                                                                                                                                                                                                                                                                                                                                                                                                                                                                                                                                                                                                                                                                                                                                                                                                                                                                                                                                                                                                                                              
E|-------------------------|------------5-----------8-|
B|-----------5--8--8-------|8-----7--5--------8--10---|
G|-------------------------|--------------------------|
D|-------------------------|--------------------------|
A|-------------------------|--------------------------|
E|-------------------------|--------------------------|

    
                                                                                                                                                                                                                                                                                                                                                                                                                                                                                                                                                                                                 
E|--7--8--7--------10----------8-|
B|-----------10-8--------8--10---|
G|-------------------------------|
D|-------------------------------|
A|-------------------------------|
E|-------------------------------|

    
                                                                                                                                                                                                                                                                                                                                                                                                                                                                                                                                                                                                                                                                                                                                                                                                                                                                                                                                                                                                                                                                                                                                                                                              
E|--7--8--7----------------------|--------------------------|
B|-----------10-8--10------------|--------------------------|
G|-------------------------------|---------------7-----7----|
D|-------------------------------|7-----7--7--7-------------|
A|-------------------------------|--------------------------|
E|-------------------------------|--------------------------|

    
                                                                                                                                                                                                                                                                                                                                                                                                                                                                                                                                                                                                                                                                                                                                                                                                                                                                                                                                                                                                                                                                                                                                                                                              
E|-------------------------|-----------------------|
B|-------------------------|-----------------------|
G|--5-----4----------------|7-----7-----7--5--7--5-|
D|--------------7-----7----|-----------------------|
A|-------------------------|-----------------------|
E|-------------------------|-----------------------|

    
                                                                                                                                                                                                                                                                                                                                                                                                                                                                                                                                                                                                                                                                                                                                                                                                                                                                                                                                                                                                                                                                                                                                                                                              
E|----------------------------------------|--------------------------|
B|----------------------------------------|--------------------------|
G|----------------------------------------|---------------7-----7----|
D|--------5--7--8--7--5--7--8--7--5--7----|7-----7--7--7-------------|
A|-----7----------------------------------|--------------------------|
E|----------------------------------------|--------------------------|

    
                                                                                                                                                                                                                                                                                                                                                                                                                                                                                                                                                                                                                                                                                                                                                                                                                                                                                                                                                                                                                                                                                                                                                                                              
E|-------------------------|--------------------------|
B|-------------------------|--------------------------|
G|--5-----4----------------|7--5-----7--4-----5--4----|
D|--------------7-----7----|------------------------5-|
A|-------------------------|--------------------------|
E|-------------------------|--------------------------|

    
                                                                                                                                                                                                                                                                                                                                                                                                                                                                                                                                                                                                                                                                                                                                                                                                                                                                                                                                                                                                                                                                                                                                                                                              
E|-------------------------|-----------------------------|
B|-------------------------|---------------6-----6-----6-|
G|-------------------------|5-----5--5--5----------------|
D|--7----------------------|-----------------------------|
A|-------------------------|-----------------------------|
E|-------------------------|-----------------------------|

    
                                                                                                                                                                                                                                                                                                                                                                                                                                                                                                                                                                                                                                                                                                                                                                                                                                                                                                                                                                                                                                                                                                                                                                                              
E|-------------------------------|-----------------------------|
B|--8--6--5-----5--6--5----------|8--------8--7--8--7--5-------|
G|-----------7-----------7--5----|------------------------7----|
D|-------------------------------|-----------------------------|
A|-------------------------------|-----------------------------|
E|-------------------------------|-----------------------------|

    
                                                                                                                                                                                                                                                                                                                                                                                                                                                                                                                                                                                                                                                                                                                                                                                                                                                                                                                                                                                                                                                                                                                                                                                              
E|-------------------------------------|--------------------------|
B|-----5-----7--8--7--5-----5----------|--------------------------|
G|--7--------------------7-------------|---------------7-----7----|
D|-------------------------------------|7-----7--7--7-------------|
A|-------------------------------------|--------------------------|
E|-------------------------------------|--------------------------|

    
                                                                                                                                                                                                                                                                                                                                                                                                                                                                                                                                                                                                                                                                                                                                                                                                                                                                                                                                                                                                                                                                                                                                                                                              
E|-------------------------|--------------------------|
B|-------------------------|--------------------------|
G|--5-----4----------------|7--5-----7--4-----5--4----|
D|--------------7-----7----|------------------------5-|
A|-------------------------|--------------------------|
E|-------------------------|--------------------------|

    
                                                                                                                                                                                                                                                                                                                                                                                                                                                                                                                                                                                                 
E|-------------------------|
B|-------------------------|
G|-------------------------|
D|--7----------------------|
A|-------------------------|
E|-------------------------|
tabs and chords, guitar tabs, music transcription, music technology, deep learning, music information retrieval, transcribe into tabs & chords, chordify, music renditions, songsterr, reverbnation, tabulature, bollywood chords, ultimate guitar, yousician, guitar lessons, acoustic guitar, electric guitar, guitar tuner, 911 tabs