Guitar Tabs for O Sanam - Lucky Ali

(/) Slide Up  (\) Slide Down  (h) Hammer On  (p) Pull Off  (b) Bend (r) Release (v) Vibrato (x) Muted

Guitar Tabs for O Sanam By Lucky Ali

Hmmmmmm hmmm hmmmm o o o o .... oo oo oo
E|--3------------5\3-----------------------2--2--2--------3------3\1--------------------
B|--------5--6--------6-----5--6---5/6--3------------5/7--------------5---6\5--3--------
G|--------------------------------------------------------------------------------5-----
D|--------------------------------------------------------------------------------------
A|--------------------------------------------------------------------------------------
E|--------------------------------------------------------------------------------------

Shaam Saware Teri Yaade aati hain
E|--------------------------------------------
B|--5-----5--5--3--3--3-----6--6-----3--3-----
G|-----------------------5--------5-----------
D|--------------------------------------------
A|--------------------------------------------
E|--------------------------------------------

Aake Dil Ko Mere Yu ...
E|-----------------------------------------
B|--5-----5--3--3--3-----6--6--------------
G|--------------------5--------5--5--4-----
D|-----------------------------------------
A|-----------------------------------------
E|-----------------------------------------

O sanam
E|--------------------------------------------------
B|--6--------3--------6--6--------------------------
G|--------5-----------------5--5---4/5--2--4--5-----
D|-----------------5--------------------------------
A|--------------------------------------------------
E|--------------------------------------------------

Samjhe Zamana Ki Dil Hai Khilona  
E|-----------------------------------------------------------------------------------------
B|--------------5--5--5--1--3--3---3\1---3\1--5--------------------6--5--3---3\1---3\1--5--
G|---------------------------------------------------5\2--5--5--5--------------------------
D|--5-----5--------------------------------------------------------------------------------
A|-----------------------------------------------------------------------------------------
E|-----------------------------------------------------------------------------------------

Nazaro Se Ab Na Humkon Girana
E|-----------------------------------
B|--------------6--3--3------3\1--5--
G|--2--2-----2-----------5-----------
D|--------5--------------------------
A|-----------------------------------
E|-----------------------------------

Mar Bhi Gaye Toh Bhool Na Jana
E|-----------------------------------------
B|------------------8/10-8--8---5/8--8--8--
G|--5--2--5--5--5--------------------------
D|-----------------------------------------
A|-----------------------------------------
E|-----------------------------------------


tabs and chords, guitar tabs, music contests, music covers, songsterr, reverbnation, renditions, tabulature, bollywood chords, ultimate guitar, yousician, guitar lessons, torrins, fender, gibson, acoustic guitar, electric guitar, youtube covers, gootar, guitar tuner, A-Z tabs, 911 tabs