Guitar Tabs for Numbs - Linkin Park

(/) Slide Up  (\) Slide Down  (h) Hammer On  (p) Pull Off  (b) Bend (r) Release (v) Vibrato (x) Muted

Tabs for Song : 

Song lyrics here
E|-----------0-----3-----2-----------3-----2-----------------0--
B|--0--3--0-----------------0--3--0--------------3--0--3--0-----
G|--------------0-----0-----------------0-----0-----------------
D|--------------------------------------------------------------
A|--------------------------------------------------------------
E|-----------0-----------------------3-----------------------0--



Song lyrics here
E|--------------------------------------------------------------------------------
B|--3--0--0--1--0-----0--------------------0--0--------------0--0-----------------
G|--3--------------------2--0--------0-----------2--0-----2--------2--0-----2-----
D|--3-----------------------------0-----0--------------------0-----------0-----0--
A|--3--------------3-----------3-----------3--------------------------------------
E|--3--------------------------------------------------3--------------------------

Paste any tab in acousterr's tab maker and we'll play it !!!
Now supports capo and sound effects for vibrato/pull-off/hammer/bends/mutes etc !!! Checkout help section
tabs and chords, guitar tabs, music transcription, music technology, deep learning, music information retrieval, transcribe into tabs & chords, chordify, music renditions, songsterr, reverbnation, tabulature, bollywood chords, ultimate guitar, yousician, guitar lessons, acoustic guitar, electric guitar, guitar tuner, 911 tabs