Guitar Tabs for Numbers

(/) Slide Up  (\) Slide Down  (h) Hammer On  (p) Pull Off  (b) Bend (r) Release (v) Vibrato (x) Muted

Tabs for Song : Numbers

 0:00
E|-----------------------------------------------------------------------------------------------------------
B|-----------------------------------------------------------------------------------------------------------
G|-----6--6-----6-----6--6-----6-----6--6-----6-----6--6-----6-----6--6-----6-----6--6-----6-----6--6-----6--
D|-----4--4-----4-----4--4-----4-----6--6-----6-----6--6-----6-----4--4-----4-----4--4-----4-----6--6-----6--
A|-----------------------------------------------------------------------------------------------------------
E|--5--------5-----5--------5-----5--------5-----5--------5-----5--------5-----5--------5-----5--------5-----

E|-----
B|-----
G|-----
D|-----
A|-----
E|--

E|--------------------------------------------------------------------------------------------------------------------------\a
B|--------------------------------------------------------------------------------------------------------------------------
G|-----14-14----14----13-13----13----11-11----11----7--7-----7-----14-14----14----13-13----13----11-11----11----7--7-----7--
D|-----11-11----11----11-11----11----14-14----14----7--7-----7-----11-11----11----11-11----11----14-14----14----7--7-----7--
A|--------------------------------------------------------------------------------------------------------------------------
E|--12-------12----12-------12----12-------12----7--------7-----12-------12----12-------12----12-------12----7--------7-----

 1:33
E|--------------------------------------------------------------------------------------------------------------------------\
B|--------------------------------------------------------------------------------------------------------------------------
G|-----14-14----14----13-13----13----11-11----11----7--7-----7-----2--2-----2-----7--7-----7-----11-11----11----11-11----11-
D|-----11-11----11----11-11----11----14-14----14----7--7-----7-----2--2-----2-----7--7-----7-----11-11----11----11-11----11-
A|--------------------------------------------------------------------------------------------------------------------------
E|--12-------12----12-------12----12-------12----7--------7-----2--------2-----7--------7-----10-------10----10-------10----

1:57

E|--------------------------------------------------------------------------------------------------------------------------
B|--------------------------------------------------------------------------------------------------------------------------
G|-----6--6-----6-----6--6-----6-----6--6-----6-----6--6-----6-----6--6-----6-----6--6-----6-----6--6-----6-----6--6-----6--
D|-----4--4-----4-----4--4-----4-----6--6-----6-----6--6-----6-----4--4-----4-----4--4-----4-----6--6-----6-----6--6-----6--
A|--------------------------------------------------------------------------------------------------------------------------
E|--5--------5-----5--------5-----5--------5-----5--------5-----5--------5-----5--------5-----5--------5-----5--------5-----
tabs and chords, guitar tabs, music contests, music covers, songsterr, reverbnation, renditions, tabulature, bollywood chords, ultimate guitar, yousician, guitar lessons, torrins, fender, gibson, acoustic guitar, electric guitar, youtube covers, gootar, guitar tuner, A-Z tabs, 911 tabs