Ukulele Tabs for Nujum Pak Belalang - P. Ramlee

(/) Slide Up  (\) Slide Down  (h) Hammer On  (p) Pull Off  (b) Bend (r) Release (v) Vibrato (x) Muted

Tabs for Song : 
BPM : 200

A|--2--2-----3-----5--5--5--5-----2--------------2-----------------------------------------------------------
E|-----------------------------------3-----5--------------3--------2-----3--3--3--3--------------------------
C|-----------------------------------------------------------4--------------------------4--0-----2-----4-----
G|-----------------------------------------------------------------------------------------------------------

A|--------------------------------------------------------2-----3-----7-----5-----3-----2--------------------
E|--------2-----3-----5--5--5--5-----3--2-----------------------------------------------------5-----3--------
C|-----4--------------------------------------4-----2--------------------------------------------------------
G|-----------------------------------------------------------------------------------------------------------

A|--2--2-----3-----5--5--5--5-----2--------------2-----------------------------------------------------------
E|-----------------------------------3-----5--------------3--------2-----3--3--3--3--------------------------
C|-----------------------------------------------------------4--------------------------4--0-----2-----4-----
G|-----------------------------------------------------------------------------------------------------------

A|--------------------------2-----------------------------2-----3-----7-----5-----3-----2--------------------
E|--------2-----3-----5--------3--5--2--3-----2-----------------------------------------------5-----3--------
C|-----4-----------------------------------4-----2-----------------------------------------------------------
G|-----------------------------------------------------------------------------------------------------------

A|--3-----3-----5-----7-----7--7-----7-----7-----7--8--7--5--3-----5-----7-----7-----10----8-----7--5--------
E|-----------------------------------------------------------------------------------------------------------
C|-----------------------------------------------------------------------------------------------------------
G|-----------------------------------------------------------------------------------------------------------

A|-----------------2--2--2--2-----2-----2-----2-----2--3--2-----------------2-----5-----3-----2--------------
E|--3--3-----5-----------------------------------------------5--3-----5--------------------------5-----------
C|-----------------------------------------------------------------------------------------------------------
G|-----------------------------------------------------------------------------------------------------------

A|--2--2-----3-----5--5--5--5-----2--------------2-----------------------------------------------------------
E|-----------------------------------3-----5--------------3--------2-----3--3--3--3--------------------------
C|-----------------------------------------------------------4--------------------------4--0-----2-----4-----
G|-----------------------------------------------------------------------------------------------------------

A|--------------------------------------------------------2-----3-----7-----5-----3-----2--------------------
E|--------2-----3-----5--5--5--5-----3--2-----------------------------------------------------5-----3--------
C|-----4--------------------------------------4-----2--------------------------------------------------------
G|-----------------------------------------------------------------------------------------------------------

Song lyrics here 

Dengarlah tuan satu cerita
Cerita dongeng orang tua-tua
Kisah tuk nujum yang terus mata
Bukannya betul semuanya auta

Kisahnya konon di Bringin Rendang
Dari hal tok nujum yang dah terbilang
Telek menelek semua temberang
Ahli nujum Pak Beialang

Wahai nujum Pak Belaiang
Tok nujum serekap jarang
Wahai nujum Pak belalang
Hilang pisau di telek parang

Walau begitu hatinya jujur
Kian lama kian masyhur
Hingga sultan.sangat percaya
Akhirnya jadi menantu raja

Pak Belalang ...

Use manual mode to free up cursor. Paste any tab in acousterr tab maker and we'll play it !!!
tabs and chords, guitar tabs, music transcription, music technology, deep learning, music information retrieval, transcribe into tabs & chords, chordify, music renditions, songsterr, reverbnation, tabulature, bollywood chords, ultimate guitar, yousician, guitar lessons, acoustic guitar, electric guitar, guitar tuner, 911 tabs