Guitar Tabs for Now That We're Dead - Metallica Tabs

(/) Slide Up  (\) Slide Down  (h) Hammer On  (p) Pull Off  (b) Bend (r) Release (v) Vibrato

Now That Were Dead: Metallica Tabs

Intro

E|--------------------------------------------------------------------------
B|--------------------------------------------------------------------------
G|--------------------------------------------------------------------------
D|--------------------------------------------------------------------------
A|--------------------------------------------------------------------------
E|--0--0--0--0--0--0--0--0--0--0--0--0--0--0--0--0--0--0--0--0--0--0--0--0--



Rift 1

E|--------------------------------------------------
B|--------------------------------------------------
G|--------------------------------------------------
D|--------------------------------------------------
A|-----------5--5-----7-----8-----------2-----------
E|--0--0--0--3--3--0--5--0--6--0--0--0--0--0--0--0--

E|--------------------------------------------------
B|--------------------------------------------------
G|--------------------------------------------------
D|--------------------------------------------------
A|-----------5--5-----4-----5-----------------------
E|--0--0--0--3--3--0--2--0--3--0--0--0--0--0--0--0--
     x2
     
Rift 2


E|-----------------------------------------------
B|-----------------------------------------------
G|-----------------------------------------------
D|-----------------------------------------------
A|-----------5--5-----7-----8-----7--7-----5--7--
E|--0--0--0--3--3--0--5--0--6--0--------0--------


E|--------------------------------------
B|--------------------------------------
G|--------------------------------------
D|--------------------------------------
A|--5--5-----7-----5-----7--7-----5--7--
E|--3--3--0--5--0--3--0--------0--------

E|--------------------------------------
B|--------------------------------------
G|--------------------------------------
D|--------------------------------------
A|--5--5-----4-----5-----7--7-----5--7--
E|--3--3--0--2--0--3--0--------0--------





tabs and chords, guitar tabs, music contests, music covers, songsterr, reverbnation, renditions, tabulature, bollywood chords, ultimate guitar, yousician, guitar lessons, torrins, fender, gibson, acoustic guitar, electric guitar, youtube covers, gootar, guitar tuner, A-Z tabs, 911 tabs