Guitar Tabs for Nothing Holding Me Back

NOTHING HOLDING ME BACK

e|-------------------------------------------------------------------------------|
B|-5--h7--5---5h7--5---7h8--7---7h8-----7---5h7--5---5h7--5---5h7--5---5h7--5----|
G|-----------------------------------9-------------------------------------------|
D|-------------------------------------------------------------------------------|
A|-------------------------------------------------------------------------------|
E|-------------------------------------------------------------------------------|


CHORDS: 

VERSE/PRE CHORUS/ CHORUS/ BRIDGE: 


    G X4       B X4        A x8
E|--3--------------------------------------------------------
B|--3-----------------------2--------------------------------
G|--------------4-----------2--------------------------------
D|--------------4-----------2--------------------------------
A|--2-----------2-----------0--------------------------------
E|--3--------------------------------------------------------




tabs and chords, guitar tabs, music transcription, music technology, deep learning, music information retrieval, transcribe into tabs & chords, chordify, music renditions, songsterr, reverbnation, tabulature, bollywood chords, ultimate guitar, yousician, guitar lessons, acoustic guitar, electric guitar, guitar tuner, 911 tabs