Bass Tabs for Not Ready To Make Nice


Verse 1 ("Forgive, sounds good...") (no bass)

Verse 2 ("I'm through with doubt...") 
G|--------------------------------------------------------
D|-----13----11-------------13----11----------------------
A|--------------9-----------------------------------------
E|--11----9--------7-----11----9-----7--7--7--7--7--7--7--

CHORUS
G|-----------------------------------------------------------------------------------------
D|-----------------------------------------------------------------------------------------
A|-----------4--4-----6--6-----------------------4--4-----6--6-----------------------------
E|--2--2-----------------------7--7-----2--2-----------------------7--7-----7--7--7--7--7--

//CUT//

Verse 3 ("I've known...") (same as V2)
G|--------------------------------------------------------------------------------------
D|--------------------------------------------------------------------------------------
A|--------------------9--9--------------------------------------------------------------
E|--11-11----9--9--------------7--7-----11-11----9--9-----7--7-----7--7--7--7--7--7--7--

G|--------------------------------------------------------------------------------------------------
D|--------------------------------------------------------------------------------------------------
A|--------------------------------------------------9--9--9--9--9--9--9--9--------------------------
E|--11-11-11-11-11-11-11-11-9--9--9--9--9--9--9--9--------------------------7--7--7--7--7--7--7--7--

G|--------------------------------------------------------------------------------------------------
D|--------------------------------------------------------------------------------------------------
A|--------------------------------------------------9--9--9--9--9--9--9--9--------------------------
E|--11-11-11-11-11-11-11-11-9--9--9--9--9--9--9--9--------------------------7--7--7--7--7--7--7--7--

Pre-Chorus
G|-----------------------------------------------
D|-----------------------------------------------
A|-----------4--4--2--2--------------4--4--2--2--
E|--2--2--2-----------------2--2--2--------------

CHORUS (Play 2x thru)
G|-----------------------------------------------------------------------------------------
D|-----------------------------------------------------------------------------------------
A|-----------4--4-----6--6-----------------------4--4-----6--6-----------------------------
E|--2--2-----------------------7--7-----2--2-----------------------7--7-----7--7--7--7--7--

G|-----------------------------------------------------------------------------------------
D|-----------------------------------------------------------------------------------------
A|-----------4--4-----6--6-----------------------4--4-----6--6-----------------------------
E|--2--2-----------------------7--7-----2--2-----------------------7--7-----7--7--7--7--7--

REPEAT CHORUS

Post-Chorus
G|-----------------------------------------------
D|-----------------------------------------------
A|-----------4--4--2--2--------------4--4--2--2--
E|--2--2--------------------2--2--2--------------

Outro ("Forgive, sounds good, forget...")
G|--------------------------------------
D|-----13----11-------------13----11----
A|--------------9-----------------------
E|--11----9--------7-----11----9-----7--
tabs and chords, guitar tabs, music transcription, music technology, deep learning, music information retrieval, transcribe into tabs & chords, chordify, music renditions, songsterr, reverbnation, tabulature, bollywood chords, ultimate guitar, yousician, guitar lessons, acoustic guitar, electric guitar, guitar tuner, 911 tabs