Nostrand - Ratat - Bass Tabs

Bass
    
                                                                                                                                                                                                                                                                                                                                                                                                                                                                                                                                                                                                                                                                                                                                                                                                                                                                                                                                                                                                                                                                                                                                                                                              
G|-------------------------------------------|-----------------------------------------|
D|-------------------------------------------|-----------------------------------------|
A|--3--3--3--1-----3-----3-----1--3--3--1----|---------------------------------------1-|
E|--------------3--------------------------3-|1--1--1--1--1--3-----3-----1--3--1--3----|

    
                                                                                                                                                                                                                                                                                                                                                                                                                                                                                                                                                                                                                                                                                                                                                                                                                                                                                                                                                                                                                                                                                                                                                                                              
G|-------------------------------------------|-----------------------------------------|
D|-------------------------------------------|1--1--1--------1-----1--------1--1--3--3-|
A|--3--3--3--1-----3-----3-----1--3--3--1--3-|---------3--1--------------3-------------|
E|--------------3----------------------------|-----------------------------------------|

    
                                                                                                                                                                                                                                                                                                                                                                                                                                                                                                                                                                                                                                                                                                                                                                                                                                                                                                                                                                                                                                                                                                                                                                                              
G|-------------------------------------------|-----------------------------------------|
D|-------------------------------------------|-----------------------------------------|
A|--3--3--3--1-----3-----3-----1--3--3--1----|---------------------------------------1-|
E|--------------3--------------------------3-|1--1--1--1--1--3-----3-----1--3--1--3----|

    
                                                                                                                                                                                                                                                                                                                                                                                                                                                                                                                                                                                                                                                                                                                                                                                                                                                                                                                                                                                                                                                                                                                                                                                              
G|-------------------------------------------|-----------------------------------------|
D|-------------------------------------------|1--1--1--------1-----1--------1--1--3--3-|
A|--3--3--3--1-----3-----3-----1--3--3--1--3-|---------3--1--------------3-------------|
E|--------------3----------------------------|-----------------------------------------|

    
                                                                                                                                                                                                                                                                                                                                                                                                                                                                                                                                                                                                 
G|-------------------------------------------|
D|-------------------------------------------|
A|--3--3--3--1-----3-----3-----1--3--3--1----|
E|--------------3--------------------------3-|

    
                                                                                                                                                                                                                                                                                                                                                                                                                                                                                                                                                                                                                                                                                                                                                                                                                                                                                                                                                                                                                                                                                                                                                                                              
G|-------------------------------------------|-----------------------------------------|
D|-------------------------------------------|-----------------------------------------|
A|-----------------------------------------1-|3--3--3--1-----3-----3-----1--3--3--1--3-|
E|--1--1--1--1--1--3-----3-----1--3--1--3----|------------3----------------------------|

    
                                                                                                                                                                                                                                                                                                                                                                                                                                                                                                                                                                                                                                                                                                                                                                                                                                                                                                                                                                                                                                                                                                                                                                                              
G|-------------------------------------------|-----------------------------------------|
D|--1--1--1--------1-----1--------1--1--3--3-|-----------------------------------------|
A|-----------3--1--------------3-------------|3--3--3--1-----3-----3-----1--3--3--1----|
E|-------------------------------------------|------------3--------------------------3-|

    
                                                                                                                                                                                                                                                                                                                                                                                                                                                                                                                                                                                                 
G|-------------------------------------------|
D|-------------------------------------------|
A|-----------------------------------------1-|
E|--1--1--1--1--1--3-----3-----1--3--1--3----|

    
                                                                                                                                                                                                                                                                                                                                                                                                                                                                                                                                                                                                 
G|-------------------------------------------|
D|-------------------------------------------|
A|--3--3--3--1-----3-----3-----1--3--3--1--3-|
E|--------------3----------------------------|

    
                                                                                                                                                                                                                                                                                                                                                                                                                                                                                                                                                                                                                                                                                                                                                                                                                                                                                                                                                                                                                                                                                                                                                                                              
G|-------------------------------------------|-----------------------------------------|
D|--1--1--1--------1-----1--------1--1--3--3-|-----------------------------------------|
A|-----------3--1--------------3-------------|3--3--3--1-----3-----3-----1--3--3--1----|
E|-------------------------------------------|------------3--------------------------3-|

    
                                                                                                                                                                                                                                                                                                                                                                                                                                                                                                                                                                                                                                                                                                                                                                                                                                                                                                                                                                                                                                                                                                                                                                                              
G|-------------------------------------------|-----------------------------------------|
D|-------------------------------------------|-----------------------------------------|
A|-----------------------------------------1-|3--3--3--1-----3-----3-----1--3--3--1--3-|
E|--1--1--1--1--1--3-----3-----1--3--1--3----|------------3----------------------------|

    
                                                                                                                                                                                                                                                                                                                                                                                                                                                                                                                                                                                                 
G|-------------------------------------------|
D|--1--1--1--------1-----1--------1--1--3--3-|
A|-----------3--1--------------3-------------|
E|-------------------------------------------|

    
                                                                                                                                                                                                                                                                                                                                                                                                                                                                                                                                                                                                                                                                                                                                                                                                                                                                                                                                                                                                                                                                                                                                                                                              
G|-------------------------------------------|-----------------------------------------|
D|-------------------------------------------|-----------------------------------------|
A|--3--3--3--1-----3-----3-----1--3--3--1----|---------------------------------------1-|
E|--------------3--------------------------3-|1--1--1--1--1--3-----3-----1--3--1--3----|

    
                                                                                                                                                                                                                                                                                                                                                                                                                                                                                                                                                                                                 
G|-------------------------------------------|
D|-------------------------------------------|
A|--3--3--3--1-----3-----3-----1--3--3--1--3-|
E|--------------3----------------------------|

    
                                                                                                                                                                                                                                                                                                                                                                                                                                                                                                                                                                                                                                                                                                                                                                                                                                                                                                                                                                                                                                                                                                                                                                                              
G|-------------------------------------|--------------------------------|
D|--1--1--1--------1-----1--------1--1-|--------------------------------|
A|-----------3--1--------------3-------|--------------------------------|
E|-------------------------------------|4--------4--3--4--3--3--3-----3-|

    
                                                                                                                                                                                                                                                                                                                                                                                                                                                                                                                                                                                                                                                                                                                                                                                                                                                                                                                                                                                                                                                                                                                                                                                              
G|----------------------------------|--------------------------------|
D|----------------------------------|--------------------------------|
A|----------------------------------|--------------------------------|
E|--8-----8--8-----8-----8-----11---|4--------4--3--4--3--3--3-----3-|

    
                                                                                                                                                                                                                                                                                                                                                                                                                                                                                                                                                                                                                                                                                                                                                                                                                                                                                                                                                                                                                                                                                                                                                                                              
G|-------------------------------|--------------------------------|
D|-------------------------------|--------------------------------|
A|-------------------------------|--------------------------------|
E|--8-----8-----11----13----15---|4--------4--3--4--3--3--3-----3-|

    
                                                                                                                                                                                                                                                                                                                                                                                                                                                                                                                                                                                                                                                                                                                                                                                                                                                                                                                                                                                                                                                                                                                                                                                              
G|----------------------------------|--------------------------------|
D|----------------------------------|--------------------------------|
A|----------------------------------|--------------------------------|
E|--8-----8--8-----8-----8-----11---|4--------4--3--4--3--3--3-----3-|

    
                                                                                                                                                                                                                                                                                                                                                                                                                                                                                                                                                                                                 
G|----------------------------|
D|----------------------------|
A|----------------------------|
E|--8--------------13----15---|

    
                                                                                                                                                                                                                                                                                                                                                                                                                                                                                                                                                                                                 
G|-------------------------------|
D|-------------------------------|
A|--8-----------8-----8--8-------|
E|-----------8-------------------|

    
                                                                                                                                                                                                                                                                                                                                                                                                                                                                                                                                                                                                                                                                                                                                                                                                                                                                                                                                                                                                                                                                                                                                                                                              
G|-------------------------------|-----------------------------|
D|-------------------------------|-----------------------------|
A|--15----------15----18----18/--|8-----------8-----8--8------8/
E|-------------------------------|---------8-------------------|

    
                                                                                                                                                                                                                                                                                                                                                                                                                                                                                                                                                                                                                                                                                                                                                                                                                                                                                                                                                                                                                                                                                                                                                                                              
G|-------------------------------|-----------------------------|
D|-------------------------------|-----------------------------|
A|--15----------15----15-15----15|8-----------8-----8--8------8/
E|-----------15------------------|---------8-------------------|

    
                                                                                                                                                                                                                                                                                                                                                                                                                                                                                                                                                                                                 
G|-------------------------|
D|-------------------------|
A|--3----------------------|
E|-------------------------|
tabs and chords, guitar tabs, music transcription, music technology, deep learning, music information retrieval, transcribe into tabs & chords, chordify, music renditions, songsterr, reverbnation, tabulature, bollywood chords, ultimate guitar, yousician, guitar lessons, acoustic guitar, electric guitar, guitar tuner, 911 tabs