Bass Tabs for Norah Jones - Don't Know Why

(/) Slide Up  (\) Slide Down  (h) Hammer On  (p) Pull Off  (b) Bend (r) Release (v) Vibrato (x) Muted

Tabs for Song : 
BPM : 200

Song lyrics here 
G|--------------------------------------------------0-----------------------------------------------
D|--------------------------1-----------0--------0--------------------------3-----------3--------3--
A|--1-----------1-----------------------------------------------3-----------------------------------
E|--------------------------------------------------------------------------------------------------

G|--------------------------------------------------0-----------------------------------------------
D|--------------------------1-----------0--------4--------------------------3--------3--------3-----
A|--1-----------1-----------------------------------------------3-----------------------1-----------
E|--------------------------------------------------------------------------------------------------

G|--------------------------------------------------0-----------------------------------------------
D|--------------------------1--------1--0--------4--------------------------3--------3--------3-----
A|--1-----------1--------1--------------------------------------3-----------------------1-----------
E|--------------------------------------------------------------------------------------------------

G|--0-----------------------------------------------------------------------------------------------
D|--------------------------3--------3--------------------------------------1--------1--0-----4-----
A|--------------3-----------------------------------1-----------1--------1--------------------------
E|-----------------------------------------------1--------------------------------------------------

G|--0--------0--------------------------------------------------------------------------------------
D|--------------------------3--------3-----------3--------------------------1--------1--0-----4-----
A|--------------3-----------------------1-----------1-----------1--------1--------------------------
E|--------------------------------------------------------------------------------------------------

G|--0-----------------------------------------------0-----------------------------------------0-----
D|--------------------------3--------3-----------3--------------0-----------------------2-----------
A|--------------3-----------------------1-----------------------------------3--------3--------------
E|--------------------------------------------------------------------------------------------------

G|-----------------------5-----------------5--------0-----------------------------------------0-----
D|--3-----------3-----------3--------3--------3-----------------0-----------------------1--------0--
A|--------------------------------------------------------------------------3--------3--------------
E|--------------------------------------------------------------------------------------------------

G|--------------------------------------------------------------3-----------------------------------
D|--3--------1-----------0--------------------------------------------------1--------1--0-----4-----
A|-----------------------------------3--------------1-----------------------------------------------
E|--------------------------------------------------------------------------------------------------

G|--0-----------------------------------------------------------------------------------------------
D|--------------------------3--------3--------3-----------------------------1--------1--0-----4-----
A|--------------3-----------------------1-----------1-----------1-----------------------------------
E|--------------------------------------------------------------------------------------------------

G|--0-----------------------------------------------0-----------------------------------------0-----
D|--------------------------3--------3--------3-----------------0-----------------------2-----------
A|--------------3-----------------------1-----------------------------------3-----------------------
E|--------------------------------------------------------------------------------------------------

G|-----------------------5-----------------5--------0--------------------------------------0--------
D|--3-----------3-----------3--------3--3-----3--4--------------0-----0-----------------2--------0--
A|--------------------------------------------------------------------------3--------3--------------
E|--------------------------------------------------------------------------------------------------

G|--------------------------------------------------------------------------------------------------
D|--3-----------------------3-----------------------------------------0-----1--------1--0-----4-----
A|--------------------------------------------------1-----------1-----------------------------------
E|--------------1-----------------------1-----------------------------------------------------------

G|--0--------0--------------------------------------------------------------------------------------
D|--------------------------3--------3-----3-----------------------------0--1--------1--0-----4-----
A|--------------3--------3--------------1--------0--1--------1--1-----------------------------------
E|--------------------------------------------1-----------------------------------------------------

G|--0--------0--------------------------------------------------------------------------------------
D|--------------------------3--------3--------3-----------------------------1-----------0--------0--
A|--------------3--------3--------------------------1-----------1--------1--------------------------
E|--------------------------------------1-----------------------------------------------------------

G|--0-----------------------------------------------------------3--------3--------------------------
D|--------------------------3--------3--------3-----------------------------1--------1--0-----4-----
A|--------------3-----------------------1-----------1-----------------------------------------------
E|--------------------------------------------------------------------------------------------------
Song lyrics here 
G|--0-----------------------------------------------------------------------------------------------
D|--------------------------3--------3--------------------------------------3--------3--------------
A|--------------3-----------------------1-----0-----------------3--------3--------------1-----0-----
E|--------------------------------------------------3-----------------------------------------------

G|--------------------------------------------------
D|--------------------------3-----------------------
A|--------------3-----------------------1-----------
E|--3-----------------------------------------------


Use manual mode to free up cursor. Paste any tab in acousterr tab maker and we'll play it !!!
tabs and chords, guitar tabs, music transcription, music technology, deep learning, music information retrieval, transcribe into tabs & chords, chordify, music renditions, songsterr, reverbnation, tabulature, bollywood chords, ultimate guitar, yousician, guitar lessons, acoustic guitar, electric guitar, guitar tuner, 911 tabs