No Puedo Olvidar - La Resistencia - Guitar Tabs

Track 1
    
                                                                                                                                                                                                                                                                                                                                                                                                                                                                                                                                                                                                 
E|--7----------------------|
B|--8----------------------|
G|--9----------------------|
D|-------------------------|
A|-------------------------|
E|-------------------------|

    
                                                                                                                                                                                                                                                                                                                                                                                                                                                                                                                                                                                                                                                                                                                                                                                                                                                                                                                                                                                                                                                                                                                                                                                              
E|--7--------(7)-----------|8----------------------|
B|--8--------------8-------|8----------------------|
G|--------------------9----|9----------------------|
D|-------------------------|-----------------------|
A|-------------------------|-----------------------|
E|-------------------------|-----------------------|

    
                                                                                                                                                                                                                                                                                                                                                                                                                                                                                                                                                                                                                                                                                                                                                                                                                                                                                                                                                                                                                                                                                                                                                                                              
E|--7-----7--------7-------|7----------------------|
B|--7--------7-------------|8----------------------|
G|--8-----------8----------|9----------------------|
D|-------------------------|-----------------------|
A|-------------------------|-----------------------|
E|-------------------------|-----------------------|

    
                                                                                                                                                                                                                                                                                                                                                                                                                                                                                                                                                                                                                                                                                                                                                                                                                                                                                                                                                                                                                                                                                                                                                                                              
E|--7----------------------|8----------------------|
B|--8-----8----------------|8----------------------|
G|--------------9----------|9----------------------|
D|-------------------------|-----------------------|
A|-------------------------|-----------------------|
E|-------------------------|-----------------------|

    
                                                                                                                                                                                                                                                                                                                                                                                                                                                                                                                                                                                                                                                                                                                                                                                                                                                                                                                                                                                                                                                                                                                                                                                              
E|--7-----7----------------|7--------7--------7----|
B|--7--------7-------------|---8--------8--------8-|
G|--8-----------8----------|------9--------9-------|
D|-------------------------|-----------------------|
A|-------------------------|-----------------------|
E|-------------------------|-----------------------|

    
                                                                                                                                                                                                                                                                                                                                                                                                                                                                                                                                                                                                                                                                                                                                                                                                                                                                                                                                                                                                                                                                                                                                                                                              
E|-----7--------7--------8-|------8--------8-------|
B|--------8--------8-------|8--------8--------8----|
G|--9--------9--------9----|---9--------9--------9-|
D|-------------------------|-----------------------|
A|-------------------------|-----------------------|
E|-------------------------|-----------------------|

    
                                                                                                                                                                                                                                                                                                                                                                                                                                                                                                                                                                                                                                                                                                                                                                                                                                                                                                                                                                                                                                                                                                                                                                                              
E|--8--------7--------7----|---7--------7--------7-|
B|-----8--------7--------7-|------8--------8-------|
G|--------9--------8-------|8--------9--------9----|
D|-------------------------|-----------------------|
A|-------------------------|-----------------------|
E|-------------------------|-----------------------|

    
                                                                                                                                                                                                                                                                                                                                                                                                                                                                                                                                                                                                                                                                                                                                                                                                                                                                                                                                                                                                                                                                                                                                                                                              
E|--------7--------7-------|8--------8--------8----|
B|--8--------8--------8----|---8--------8--------8-|
G|-----9--------9--------9-|------9--------9-------|
D|-------------------------|-----------------------|
A|-------------------------|-----------------------|
E|-------------------------|-----------------------|

    
                                                                                                                                                                                                                                                                                                                                                                                                                                                                                                                                                                                                                                                                                                                                                                                                                                                                                                                                                                                                                                                                                                                                                                                              
E|-----8--------7--------7-|---7-----7-----7-----7-|
B|--------8--------7-------|7--8-----8-----8-----8-|
G|--9--------9--------8----|---9-----9-----9-----9-|
D|-------------------------|-----------------------|
A|-------------------------|-----------------------|
E|-------------------------|-----------------------|

    
                                                                                                                                                                                                                                                                                                                                                                                                                                                                                                                                                                                                                                                                                                                                                                                                                                                                                                                                                                                                                                                                                                                                                                                              
E|-----7-----7-----7-----7-|---8-----8-----8-----8-|
B|-----8-----8-----8-----8-|---8-----8-----8-----8-|
G|-----9-----9-----9-----9-|---9-----9-----9-----9-|
D|-------------------------|-----------------------|
A|-------------------------|-----------------------|
E|-------------------------|-----------------------|

    
                                                                                                                                                                                                                                                                                                                                                                                                                                                                                                                                                                                                                                                                                                                                                                                                                                                                                                                                                                                                                                                                                                                                                                                              
E|-----7-----7-----7-----7-|---7-----7-----7-----7-|
B|-----7-----7-----7-----7-|---8-----8-----8-----8-|
G|-----8-----8-----8-----8-|---9-----9-----9-----9-|
D|-------------------------|-----------------------|
A|-------------------------|-----------------------|
E|-------------------------|-----------------------|

    
                                                                                                                                                                                                                                                                                                                                                                                                                                                                                                                                                                                                                                                                                                                                                                                                                                                                                                                                                                                                                                                                                                                                                                                              
E|-----7-----7-----7-----7-|---8-----8-----8-----8-|
B|-----8-----8-----8-----8-|---8-----8-----8-----8-|
G|-----9-----9-----9-----9-|---9-----9-----9-----9-|
D|-------------------------|-----------------------|
A|-------------------------|-----------------------|
E|-------------------------|-----------------------|

    
                                                                                                                                                                                                                                                                                                                                                                                                                                                                                                                                                                                                 
E|-----7-------------------|
B|-----7-------------------|
G|-----8-------------------|
D|-------------------------|
A|-------------------------|
E|-------------------------|

    
                                                                                                                                                                                                                                                                                                                                                                                                                                                                                                                                                                                                 
E|--7--7-----7-----7-----7-|
B|--8--8-----8-----8-----8-|
G|--9--9-----9-----9-----9-|
D|-------------------------|
A|-------------------------|
E|-------------------------|

    
                                                                                                                                                                                                                                                                                                                                                                                                                                                                                                                                                                                                                                                                                                                                                                                                                                                                                                                                                                                                                                                                                                                                                                                              
E|-----7-----7-----7-----7-|8--8-----8-----8-----8-|
B|-----8-----8-----8-----8-|8--8-----8-----8-----8-|
G|-----9-----9-----9-----9-|9--9-----9-----9-----9-|
D|-------------------------|-----------------------|
A|-------------------------|-----------------------|
E|-------------------------|-----------------------|

    
                                                                                                                                                                                                                                                                                                                                                                                                                                                                                                                                                                                                                                                                                                                                                                                                                                                                                                                                                                                                                                                                                                                                                                                              
E|--7--7-----7-----7-----7-|7--7-----7-----7-----7-|
B|--7--7-----7-----7-----7-|8--8-----8-----8-----8-|
G|--8--8-----8-----8-----8-|9--9-----9-----9-----9-|
D|-------------------------|-----------------------|
A|-------------------------|-----------------------|
E|-------------------------|-----------------------|

    
                                                                                                                                                                                                                                                                                                                                                                                                                                                                                                                                                                                                 
E|-----7-----7-----7-----7-|
B|-----8-----8-----8-----8-|
G|-----9-----9-----9-----9-|
D|-------------------------|
A|-------------------------|
E|-------------------------|

    
                                                                                                                                                                                                                                                                                                                                                                                                                                                                                                                                                                                                                                                                                                                                                                                                                                                                                                                                                                                                                                                                                                                                                                                              
E|--8--8-----8-----8-----8-|7--7-----7-----7-----7-|
B|--8--8-----8-----8-----8-|7--7-----7-----7-----7-|
G|--9--9-----9-----9-----9-|8--8-----8-----8-----8-|
D|-------------------------|-----------------------|
A|-------------------------|-----------------------|
E|-------------------------|-----------------------|

    
                                                                                                                                                                                                                                                                                                                                                                                                                                                                                                                                                                                                 
E|-------------------------|
B|-------------------------|
G|-------------------------|
D|--9-----9--9--9--9--9--9-|
A|--9-----9--9--9--9--9--9-|
E|--7-----7--7--7--7--7--7-|

    
                                                                                                                                                                                                                                                                                                                                                                                                                                                                                                                                                                                                 
E|-------------------------|
B|-------------------------|
G|-------------------------|
D|--9-----9--9--9--9--9--9-|
A|--9-----9--9--9--9--9--9-|
E|--7-----7--7--7--7--7--7-|

    
                                                                                                                                                                                                                                                                                                                                                                                                                                                                                                                                                                                                                                                                                                                                                                                                                                                                                                                                                                                                                                                                                                                                                                                              
E|-------------------------|-----------------------|
B|-------------------------|-----------------------|
G|-------------------------|-----------------------|
D|--7-----7--7--7--7--7--7-|5-----5-----4-----4----|
A|--7-----7--7--7--7--7--7-|5-----5-----4-----4----|
E|--5-----5--5--5--5--5--5-|3-----3-----2-----2----|

    
                                                                                                                                                                                                                                                                                                                                                                                                                                                                                                                                                                                                 
E|-------------------------|
B|-------------------------|
G|-------------------------|
D|--9----------------------|
A|--9----------------------|
E|--7----------------------|
tabs and chords, guitar tabs, music transcription, music technology, deep learning, music information retrieval, transcribe into tabs & chords, chordify, music renditions, songsterr, reverbnation, tabulature, bollywood chords, ultimate guitar, yousician, guitar lessons, acoustic guitar, electric guitar, guitar tuner, 911 tabs