Guitar Tabs for No Game No Life Op

(/) Slide Up  (\) Slide Down  (h) Hammer On  (p) Pull Off  (b) Bend (r) Release (v) Vibrato (x) Muted

Tabs for Song : 
BPM : 200

Song lyrics here 
E|--
B|--
G|--
D|--
A|--
E|--

Song lyrics here 
E|--
B|--
G|--
D|--
A|--
E|--

Use manual mode to free up cursor. Paste any tab in acousterr tab maker and we'll play it !!!
E|--------------------------------------------------------
B|-----5-----4--------------4-----5-----------------4--5--
G|-----6-----------------6--------------8--------4--------
D|-----6-----------6--------------------------------------
A|-----4-----------------------------7-----7--------------
E|--------------------------------5-----------------------
 
E|--0--------------------------------------------------
B|--------------------2--4-----5-----4-----------2--4--
G|--------8-----------------------------------------2--
D|--------------6--------------4-----------4-----------
A|-----7-----------------------4--4--------------------
E|--7--------------------------------------------------
 
E|-----------------------------------------------------
B|--5-----4-----5--------4-----5-----4-----5--------4--
G|--------------------4--------------------------4--4--
D|--------------7--------------------------------------
A|--4-----4-----4--------------------------7-----------
E|--4--------------------7-----5-----5-----------------
 
E|-----------------------------4-----5-----------0--0--
B|--5-----4-----5--------4-----------------7-----------
G|--------------------4-----------------------------1--
D|-----------------------6-----4-----4-----6--------1--
A|--------------7--------------------------------------
E|--0-----0--------------------------------------------
 
E|--0-----------2-----0-----------------------------
B|--2-----4--------------4-----0-----0-----2--------
G|--1--------------------4-----------------------2--
D|--2-----------2-----------------2-----2-----2-----
A|-----------------------------0--------------------
E|--------------------------------------------------
 
E|--0-----------2-----0--------4-----5-----2-----0-----
B|--------4-----0--------4--------------------------5--
G|--------4-----------------------------------------4--
D|-----------------------------------------1-----------
A|--2--------------------------------4-----------------
E|-----------------------------4-----------------------
 
E|--0-----------2-----0-----------------------------
B|--2-----4--------------4-----0-----0-----2--------
G|--1--------------------4-----------------------2--
D|--2-----------2-----------------2-----2-----2-----
A|-----------------------------0--------------------
E|--------------------------------------------------
 
E|--0-----------2-----0--------4-----5-----4-----2--2--
B|--------4-----0--------4-----------------------------
G|--------4-----------------------------------------1--
D|-----------------------------------------1-----------
A|--2--------------------------------4-----------------
E|-----------------------------4-----------------------
 
E|-----2--2--0--2--2--0--4--------2--2--0--2--2--0--2--
B|-----2--2--2--2--2--2--2--------2--2--2--2--2--2--2--
G|-----------------------------------------------------
D|-----------------------------------------------------
A|--4--------------------------4-----------------------
E|-----------------------------------------------------
 
E|-----2--2--0--2--2--0--4-----0-----0-----0-----0-----2--
B|-----2--2--2--2--2--2--2-----2-----2-----2-----2--------
G|-----------------------------2--------------------------
D|-----------------------------2--------------------------
A|--4--------------------------0-----0-----2-----2--------
E|--------------------------------------------------------
 
E|-----2--2--0--2--2--0--4--------2--2--0--2--2--0--2--
B|-----2--2--2--2--2--2--2--------2--2--2--2--2--2--2--
G|-----------------------------------------------------
D|-----------------------------------------------------
A|--4--------------------------4-----------------------
E|-----------------------------------------------------
 
E|-----2--2--0--2--2--0--4--------------------------0--
B|-----2--2--2--2--2--2--2-----2-----2-----2-----2-----
G|-----------------------------2-----2-----2-----------
D|-----------------------------2-----------4-----------
A|--4--------------------------0-----0-----2-----------
E|-----------------------------------------------------
 
E|--3-----------3--10-------7---------5p-3h5--------
B|--1-----------------------7-----------------------
G|--0-----------------------7-----------------------
D|--2-----------------------------------------------
A|--3-----------------------5--------------5--------
E|--------------------------------------------------
 
E|--5-----5--7-----2--2-----------------2--------
B|--5-----------8-----------3--------------------
G|--------------------------------4-----------4--
D|-----5-----------------------4-----4-----4-----
A|--7-----------------------2--------------------
E|-----------------------------------------------
 
E|--0-----------0-----2-----3-----3-----2--0--2--------3--
B|--1-----------1-----1-----1-----3-----------3-----------
G|--0-----------------------------------------2-----------
D|--2-----------------------------------------0-----------
A|--3-----------------------------------------------------
E|--------------------------------------------------------
 
E|--5-----5--------------------------------------------
B|--5-----5--------------------------------------------
G|--5-----5--------------------------------7-----5-----
D|--7--------------------------------------------------
A|--7--------7--7--7--7-----6-----7-----9--------------
E|--5-----------------------7--------------------------
 
E|--3-----------------------7--------5-----10----8--
B|--3-----------------------8-----------------------
G|--4-----------------------9-----------------------
D|--5-----------------------9-----------------------
A|--5-----------------------7-----------------------
E|--3-----------------------------------------------
 
E|--7--------5-----10----8-----7-----------3-----5-----7--
B|--8--------------------------0--------------------------
G|--9--------------------------0--------------------------
D|--9-----------------------------------------------------
A|--------------------------------------------------------
E|--8--------------------------3--------------------------
 
E|--7-----5--------------------5--------3--------5--
B|--------------5--------------5-----------3--------
G|--6--------------------------5-----------2--------
D|--------------------------------------------------
A|--7--------------------------3-----------3--------
E|--5-----------------------------------------------
 
E|--8--------7--5--7--------5-----7-----5-----------------
B|--8--------------8--------------------------5-----5--7--
G|--7--------------7--------------5-----------------------
D|--5-----------------------------5-----------7-----------
A|--------------------------------------------7-----------
E|--------------------------------------------------------
 
E|--------------8-----7--------7--------5-----10----8--
B|--8--------7--4-----4--------8-----------------------
G|--8-----------4-----4--------9-----------------------
D|-----------------------------9-----------------------
A|-----------------------------7-----------------------
E|--7--------------------------------------------------
 
E|--7--------5-----10----8-----7--------------12-------
B|--8--------------------------0--------12----------12-
G|--9--------------------------0-----------------------
D|--9--------------------------------------------------
A|-----------------------------------------------------
E|--8--------------------------3-----------------------
 
E|--10----9--------------------------------7-----5--5--
B|--10----------10----5--7-----8-----5-----------------
G|--9--------------------------------------------------
D|--7--------------------------------------------------
A|-----------------------------------------5-----------
E|-----------------------------8-----------------------
 
E|--5-----3-----------------------------5-----------------
B|--------------7-----8-----7-----7-----------8-----------
G|--------------------------7-----5-----------------------
D|--------------5-----------------5-----------5-----------
A|--5-----------------------------------7-----------------
E|--3-----------------------------------------------------
 
E|--------5-----10-------------------------7-----5--5--10-
B|--7-----7-----7--------8-----8-----5--------------------
G|--7-----7-----7--------------------------5--------------
D|--7--------------------------------------5--------------
A|--5-----------------------------------------------------
E|-----------------------------8--------------------------
 
E|--7-----------------------------------------------------
B|--------------------------------------------------------
G|-----------------------7-----9-----------7-----------5--
D|-----------7-----5-----------9-----9-----7-----7-----5--
A|--5--------5-----------------7-----------5-----------3--
E|--------------------------------------------------------
 
E|--------------------------0--------------------
B|--------------------------0--------------------
G|--7-----------------------0--------------------
D|--7-----------------------2--------------------
A|--5-----------------------2--------------------
E|--------------------------0--------------------
tabs and chords, guitar tabs, music transcription, music technology, deep learning, music information retrieval, transcribe into tabs & chords, chordify, music renditions, songsterr, reverbnation, tabulature, bollywood chords, ultimate guitar, yousician, guitar lessons, acoustic guitar, electric guitar, guitar tuner, 911 tabs