Guitar Tabs for No 1

(/) Slide Up  (\) Slide Down  (h) Hammer On  (p) Pull Off  (b) Bend (r) Release (v) Vibrato (x) Muted

Tabs for Song : 
BPM : 200

Song lyrics here 
E|--------------------------------------------------------------------------------------------------------------------------------------------------
B|--------------------------------------------------------------------------------------------------------------------------------------------------
G|--------------------------------------------------------------------------------------------------------------------------------------------------
D|--------------------------------------------------------------------------------------------------------------------------------------------------
A|--------7--------6--------5--4--3--2--------2--------1--------4--3--2--1--------7--------6--------5--4--3--2--------2--------1--------4--3--2--1--
E|--0--0-----0--0-----0--0--------------0--0-----0--0-----0--0--------------0--0-----0--0-----0--0--------------0--0-----0--0-----0--0--------------

E|--------------------------------------------------------------------------------------------------------------------------------------------------
B|--------------------------------------------------------------------------------------------------------------------------------------------------
G|--------------------------------------------------------------------------------------------------------------------------------------------------
D|--------7--------6--------5--4--3--2--------2--------1--------4--3--2--1--------7--------6--------5--4--3--2--------2--------1--------4--3--2--1--
A|--0--0-----0--0-----0--0--------------0--0-----0--0-----0--0--------------0--0-----0--0-----0--0--------------0--0-----0--0-----0--0--------------
E|--------------------------------------------------------------------------------------------------------------------------------------------------

E|-----------------------------------------------------------------------
B|-----------------------------------------------------------------------
G|-----------------------------------------------------------------------
D|-----------------------------------------------------------------------
A|-----2--------1--------4--3--2--1--------7--------6--------5--4--3--2--
E|--0-----0--0-----0--0--------------0--0-----0--0-----0--0--------------

E|--------------------------------------------------------------------------------------------------------------------------------------------------------------------------------------------------------------------------------------
B|--------------------------------------------------------------------------------------------------------------------------------------------------------------------------------------------------------------------------------------
G|--------------------------------------------------------------------------------------------------------------------------------------------------------------------------------------------------------------------------------------
D|--------------------------------------------------------------------------------------------------------------------------------------------------------------------------------------------------------------------------------------
A|--------2--------1--------4--3--2--1--------4-----5--4--3--2--------4-----5--4--3--2--------4-----5--4--3--2--------4-----------4-----------4-----------------------7--------6--------5--4--3--2--------2--------1--------4--3--2--1--
E|--0--0-----0--0-----0--0--------------0--2-----2--------------0--2-----2--------------0--2-----2--------------0--2-----2--0--2-----2--0--2-----0--5--4--3--2--0--0-----0--0-----0--0--------------0--0-----0--0-----0--0--------------

E|--------------------------------------------------------------------------
B|--------------------------------------------------------------------------
G|--------------------------------------------------------------------------
D|--------------------------------------------------------------------------
A|--------7--------6--------5--4--3--2--------2--------1--------4--3--2--1--
E|--0--0-----0--0-----0--0--------------0--0-----0--0-----0--0--------------

E|--------------------------------------------------------------------------------------------------
B|--------------------------------------------------------------------------------------------------
G|--------------------------------------------------------------------------------------------------
D|--------------------------------------------------------------------------------------------------
A|--------4-----------4-----------4-----------4-----------4-----------4-----------4-----------------
E|--0--2-----2--0--2-----2--0--2-----2--0--2-----2--0--2-----2--0--2-----2--0--2-----2--0-----0--2--













Song lyrics here 


Use manual mode to free up cursor. Paste any tab in acousterr tab maker and we'll play it !!!
tabs and chords, guitar tabs, music transcription, music technology, deep learning, music information retrieval, transcribe into tabs & chords, chordify, music renditions, songsterr, reverbnation, tabulature, bollywood chords, ultimate guitar, yousician, guitar lessons, acoustic guitar, electric guitar, guitar tuner, 911 tabs