Guitar Tabs for Nirvana - Smells Like Teen Spirit (guitar Solo)

Nirvana - Smells Like Teen Spirit (Guitar Solo)

1st Part
E|-----------------------------------------------------------------------
B|---------6\------4---4b-6r4--2--1------1h2--1--------------------------
G|--5--8-----1-----------------------------------3--1--3---3b-5r3--1--0--
D|-----------------------------------------------------------------------
A|-----------------------------------------------------------------------
E|-----------------------------------------------------------------------

E|-----------------------------------------------------------------------
B|---------6\------4---4b-6r4--2--1------1h2--1--------------------------
G|--5--8-----1-----------------------------------3--1--3---3b-5r3--1--0--
D|-----------------------------------------------------------------------
A|-----------------------------------------------------------------------
E|-----------------------------------------------------------------------

2nd Part
E|-----------------------------------------------------------------
B|-----------------------------------------------------------------
G|--1--0--1--0--1--0--1p-0--0--------1--0--1--0--1--0---1p0--0-----
D|-----------------------------3--------------------------------3--
A|-----------------------------------------------------------------
E|-----------------------------------------------------------------

E|-----------------------------------------------------------------
B|-----------------------------------------------------------------
G|--1--0--1--0--1--0--1p-0--0--------1--0--1--0--1--0---1p0--0-----
D|-----------------------------3--------------------------------3--
A|-----------------------------------------------------------------
E|-----------------------------------------------------------------
tabs and chords, guitar tabs, music transcription, music technology, deep learning, music information retrieval, transcribe into tabs & chords, chordify, music renditions, songsterr, reverbnation, tabulature, bollywood chords, ultimate guitar, yousician, guitar lessons, acoustic guitar, electric guitar, guitar tuner, 911 tabs