Guitar Tabs for Nick Jonas, Robin Schulz - Right Now

Nick Jonas, Robin Schulz - Right Now

CAPO in 2nd Fret

Intro

    Em                                                Em/G
E|-----------------------------------------------------------------------------------------------
B|--0--0-----0-----0--0-----0-----0--0-----0--0-----0--0--0-----0--0--0-----0--0--0-----0--0--0--
G|--0--0-----0-----0--0-----0-----0--0-----0--0-----0--0--0-----0--0--0-----0--0--0-----0--0--0--
D|--2--2-----0-----2--2-----0-----2--2-----0--2-----0--0--0-----0--0--0-----0--0--0-----0--0--0--
A|-----------------------------------------------------------------------------------------------
E|--0--------0-----0--0-----0-----0--------0--0-----2--3--------2--3--------2--3--------2--3--2--

1st Verse

***The verse is played exacly like the intro***

Em                                    Em/G
You are my water, my sun, my moon and stars
                      Em
Your heart is all I need

It start when you come
                        Em/G               D
I want to be where you are, where you are 

Pre-Chorus

    Am                            C
  Every time you go away, you're always tryna fight
E|--0-----------------------------0-----------------
B|--1-----------------------------1-----------------
G|--2-----------------------------0-----------------
D|--2-----------------------------2-----------------
A|--0-----------------------------3-----------------
E|--------------------------------------------------

            Em              D
How bad I want you, bad I want you
E|-----------0--------------2--------
B|-----------0--------------3--------
G|-----------0--------------2--------
D|-----------2--------------0--------
A|-----------2-----------------------
E|-----------0-----------------------

   Am                             C
I could try to fill the space with someone else tonight
E|--0-----------------------------0-----------------
B|--1-----------------------------1-----------------
G|--2-----------------------------0-----------------
D|--2-----------------------------2-----------------
A|--0-----------------------------3-----------------
E|--------------------------------------------------

            Em              D
But I don't want to, I don't want to
E|-----------0--------------2--------
B|-----------0--------------3--------
G|-----------0--------------2--------
D|-----------2--------------0--------
A|-----------2-----------------------
E|-----------0-----------------------
 
Chorus

   C                              Em
  Right now, you know I miss your body
E|--0-----------------------------0--
B|--1-----------------------------0--
G|--0-----------------------------0--
D|--2-----------------------------2--
A|--3-----------------------------2--
E|--------------------------------0--

                   D                       C
So I won't kiss nobody until you come back home
E|-----------------2-----------------------0--
B|-----------------3-----------------------1--
G|-----------------2-----------------------0--
D|-----------------0-----------------------2--
A|-----------------------------------------3--
E|--------------------------------------------

       C                                Em
   And I swear, the next time that I hold you
E|-----0--------------------------------0--
B|-----1--------------------------------0--
G|-----0--------------------------------0--
D|-----2--------------------------------2--
A|-----3--------------------------------2--
E|--------------------------------------0--

                  D                           C                       Em
I won't let you go nowhere, you'll never be alone, I'll never let you go
E|-----------------2--------------------------0-----------------------0--
B|-----------------3--------------------------1-----------------------0--
G|-----------------2--------------------------0-----------------------0--
D|-----------------0--------------------------2-----------------------2--
A|--------------------------------------------3-----------------------2--
E|--------------------------------------------------------------------0--

2nd Verse

***The verse is exacly like the intro***

Em                                             Em/G
You lead, I follow, no sleep, that's what you said 

                                      
That's what you said (that's what you said)

                     Em
And you should know, you leave, I'm hollow

                 Em/G
I need you in my bed (I need you in my)

You in my bed (I need you in my)


2nd Pre-Chorus
    Am                            C
  Every time you go away, you're always tryna fight
E|--0-----------------------------0-----------------
B|--1-----------------------------1-----------------
G|--2-----------------------------0-----------------
D|--2-----------------------------2-----------------
A|--0-----------------------------3-----------------
E|--------------------------------------------------

            Em              D
How bad I want you, bad I want you
E|-----------0--------------2--------
B|-----------0--------------3--------
G|-----------0--------------2--------
D|-----------2--------------0--------
A|-----------2-----------------------
E|-----------0-----------------------

   Am                                C
  I could try to fill the space with someone else tonight
E|--0--------------------------------0-----------------
B|--1--------------------------------1-----------------
G|--2--------------------------------0-----------------
D|--2--------------------------------2-----------------
A|--0--------------------------------3-----------------
E|-----------------------------------------------------

              Em            D
But I don't want to, I don't want to
E|-----------0--------------2--------
B|-----------0--------------3--------
G|-----------0--------------2--------
D|-----------2--------------0--------
A|-----------2-----------------------
 
2nd Chorus

   C                              Em
  Right now, you know I miss your body
E|--0-----------------------------0--
B|--1-----------------------------0--
G|--0-----------------------------0--
D|--2-----------------------------2--
A|--3-----------------------------2--
E|--------------------------------0--

                   D                       C
So I won't kiss nobody until you come back home
E|-----------------2-----------------------0--
B|-----------------3-----------------------1--
G|-----------------2-----------------------0--
D|-----------------0-----------------------2--
A|-----------------------------------------3--
E|--------------------------------------------

       C                                Em
   And I swear, the next time that I hold you
E|-----0--------------------------------0--
B|-----1--------------------------------0--
G|-----0--------------------------------0--
D|-----2--------------------------------2--
A|-----3--------------------------------2--
E|--------------------------------------0--

                  D                           C                       C
I won't let you go nowhere, you'll never be alone, I'll never let you go
E|-----------------2--------------------------0-----------------------0--
B|-----------------3--------------------------1-----------------------1--
G|-----------------2--------------------------0-----------------------0--
D|-----------------0--------------------------2-----------------------2--
A|--------------------------------------------3-----------------------3--
E|-----------------------------------------------------------------------
 
Pos-Chorus

       Em    D     C
Yeah, oh, yeah, oh, no
E|-----0-----2-----0--
B|-----0-----3-----1--
G|-----0-----2-----0--
D|-----2-----0-----2--
A|-----2-----------3--
E|-----0--------------

                     C     Em  D     C
I will never let you go, no, yeah, no
E|--------------------0-----0--2-----0--
B|--------------------1-----0--3-----1--
G|--------------------0-----0--2-----0--
D|--------------------2-----2--0-----2--
A|--------------------3-----2--------3--
E|--------------------------0-----------

3rd Chorus

   C                              Em
  Right now, you know I miss your body
E|--0-----------------------------0--
B|--1-----------------------------0--
G|--0-----------------------------0--
D|--2-----------------------------2--
A|--3-----------------------------2--
E|--------------------------------0--

                   D                       C
So I won't kiss nobody until you come back home
E|-----------------2-----------------------0--
B|-----------------3-----------------------1--
G|-----------------2-----------------------0--
D|-----------------0-----------------------2--
A|-----------------------------------------3--
E|--------------------------------------------

       C                                Em
   And I swear, the next time that I hold you
E|-----0--------------------------------0--
B|-----1--------------------------------0--
G|-----0--------------------------------0--
D|-----2--------------------------------2--
A|-----3--------------------------------2--
E|--------------------------------------0--

                  D                           C                       C
I won't let you go nowhere, you'll never be alone, I'll never let you go
E|-----------------2--------------------------0-----------------------0--
B|-----------------3--------------------------1-----------------------1--
G|-----------------2--------------------------0-----------------------0--
D|-----------------0--------------------------2-----------------------2--
A|--------------------------------------------3-----------------------3--
E|-----------------------------------------------------------------------


   C                              Em
  Right now, you know I miss your body
E|--0-----------------------------0--
B|--1-----------------------------0--
G|--0-----------------------------0--
D|--2-----------------------------2--
A|--3-----------------------------2--
E|--------------------------------0--

                   D                       C
So I won't kiss nobody until you come back home
E|-----------------2-----------------------0--
B|-----------------3-----------------------1--
G|-----------------2-----------------------0--
D|-----------------0-----------------------2--
A|-----------------------------------------3--
E|--------------------------------------------

       C                                Em
   And I swear, the next time that I hold you
E|-----0--------------------------------0--
B|-----1--------------------------------0--
G|-----0--------------------------------0--
D|-----2--------------------------------2--
A|-----3--------------------------------2--
E|--------------------------------------0--

                  D                           C                       C
I won't let you go nowhere, you'll never be alone, I'll never let you go
E|-----------------2--------------------------0-----------------------0--
B|-----------------3--------------------------1-----------------------1--
G|-----------------2--------------------------0-----------------------0--
D|-----------------0--------------------------2-----------------------2--
A|--------------------------------------------3-----------------------3--
E|-----------------------------------------------------------------------

 
Instrumental

    C     Em    D     C
E|--0-----0-----2-----0--
B|--1-----0-----3-----1--
G|--0-----0-----2-----0--
D|--2-----2-----0-----2--
A|--3-----2-----------3--
E|--------0--------------

 
Outro
                      C     Em    D    
Oh, you'll never be alone, ooh, yeah
E|--------------------0-----0-----2--
B|--------------------1-----0-----3--
G|--------------------0-----0-----2--
D|--------------------2-----2-----0--
A|--------------------3-----2--------
E|--------------------------0--------

       C
I'll be there, I'll never let you go
E|-----0-----------------------------
B|-----1-----------------------------
G|-----0-----------------------------
D|-----2-----------------------------
A|-----3-----------------------------
E|-----------------------------------
tabs and chords, guitar tabs, music transcription, music technology, deep learning, music information retrieval, transcribe into tabs & chords, chordify, music renditions, songsterr, reverbnation, tabulature, bollywood chords, ultimate guitar, yousician, guitar lessons, acoustic guitar, electric guitar, guitar tuner, 911 tabs