Nguoi Oi, Nguoi O - Thanh Lam - Guitar Tabs

Track 1
    
                                                                                                                                                                                                                                                                                                                                                                                                                                                                                                                                                                                                                                                                                                                                                                                                                                                                                                                                                                                                                                                                                                                                                                                              
E|-----------3-----------3-|---------3-----------3-|
B|-------------------------|-----------------------|
G|--------2-----------2----|------2-----------2----|
D|-----3-----------3-------|---3-----------3-------|
A|-------------------------|-----------------------|
E|--1----------------------|1----------------------|

    
                                                                                                                                                                                                                                                                                                                                                                                                                                                                                                                                                                                                                                                                                                                                                                                                                                                                                                                                                                                                                                                                                                                                                                                              
E|-------------------------|3--------------------3-|
B|-----------1--------3----|---------1-------------|
G|--------0--0--------0----|------0-----------0----|
D|-----2-----2-----2-----2-|---2-----------2-------|
A|-------------------------|3----------------------|
E|--3----------------------|-----------------------|

    
                                                                                                                                                                                                                                                                                                                                                                                                                                                                                                                                                                                                                                                                                                                                                                                                                                                                                                                                                                                                                                                                                                                                                                                              
E|-----------------------3-|---------3--------0----|
B|-----------1--------1----|---------1-------------|
G|--------0----------------|------2--------2-----2-|
D|-----2-----------2-------|---3-------------------|
A|--2----------------------|-----------------------|
E|-------------------------|1----------------------|

    
                                                                                                                                                                                                                                                                                                                                                                                                                                                                                                                                                                                                                                                                                                                                                                                                                                                                                                                                                                                                                                                                                                                                                                                              
E|-------------------------|3-----------------3----|
B|-----------0--------3----|---------1-------------|
G|--------0--0--------0----|------0--------0-----0-|
D|-----0-----0-----0-----0-|---2--------2----------|
A|-------------------------|3----------------------|
E|--3----------------------|-----------------------|

    
                                                                                                                                                                                                                                                                                                                                                                                                                                                                                                                                                                                                                                                                                                                                                                                                                                                                                                                                                                                                                                                                                                                                                                                              
E|-----------------------3-|------------------0----|
B|-----------3-------------|---------1-------------|
G|--------0--0--------0----|------2--------2-----2-|
D|-----2-----------2-------|---2--------2----------|
A|-------------------------|0----------------------|
E|--0----------------------|-----------------------|

    
                                                                                                                                                                                                                                                                                                                                                                                                                                                                                                                                                                                                                                                                                                                                                                                                                                                                                                                                                                                                                                                                                                                                                                                              
E|--------------------0----|-----------------------|
B|-----------3-----------3-|1--------1--0--------0-|
G|--------0--1-------------|------2-----------0----|
D|-----2-----------2-------|---2-----------0-------|
A|-------------------------|0----------------------|
E|--0----------------------|------------3----------|

    
                                                                                                                                                                                                                                                                                                                                                                                                                                                                                                                                                                                                                                                                                                                                                                                                                                                                                                                                                                                                                                                                                                                                                                                              
E|-----------1--------0----|-----------------------|
B|-----------1-----------3-|1--------1--0--------0-|
G|--------2----------------|------2-----------0----|
D|-----3-------------------|---2-----------0-------|
A|-------------------------|0----------------------|
E|--1----------------------|------------3----------|

    
                                                                                                                                                                                                                                                                                                                                                                                                                                                                                                                                                                                                                                                                                                                                                                                                                                                                                                                                                                                                                                                                                                                                                                                              
E|-----------0-------------|-----------------------|
B|--------------------1----|---------1--------0----|
G|--------2----------------|------0--------0-------|
D|-----3-----------3-----3-|---0--------0--------0-|
A|-------------------------|-----------------------|
E|--1----------------------|3----------------------|

    
                                                                                                                                                                                                                                                                                                                                                                                                                                                                                                                                                                                                                                                                                                                                                                                                                                                                                                                                                                                                                                                                                                                                                                                              
E|-------------------------|-----------------------|
B|-------------------------|---------1--------1----|
G|--0----------------------|------0--------0-----0-|
D|--0----------------------|---2--------2----------|
A|--2----------------------|3----------------------|
E|--3----------------------|-----------------------|

    
                                                                                                                                                                                                                                                                                                                                                                                                                                                                                                                                                                                                                                                                                                                                                                                                                                                                                                                                                                                                                                                                                                                                                                                              
E|-------------------------|-----------------------|
B|-----------0--------0----|---------1-----------1-|
G|--------0--------0-----0-|------2-----------0--0-|
D|-----2--------2----------|---3-----------0-------|
A|--2----------------------|-----------------------|
E|-------------------------|1-----------3----------|

    
                                                                                                                                                                                                                                                                                                                                                                                                                                                                                                                                                                                                                                                                                                                                                                                                                                                                                                                                                                                                                                                                                                                                                                                              
E|-------------------------|-----------------------|
B|--------3--------------1-|------1--------------0-|
G|--------0-----------0----|---0-----0--------0----|
D|-----0-----0-----2-------|2--------------2-------|
A|--------------3----------|------------2----------|
E|-------------------------|-----------------------|

    
                                                                                                                                                                                                                                                                                                                                                                                                                                                                                                                                                                                                                                                                                                                                                                                                                                                                                                                                                                                                                                                                                                                                                                                              
E|-------------------------|---------------------3-|
B|--------0--------------1-|---------3--------3----|
G|-----0-----0--------2----|------0--------0-------|
D|--2--------------3-------|---0-------------------|
A|-------------------------|------------2----------|
E|--------------1----------|3----------------------|

    
                                                                                                                                                                                                                                                                                                                                                                                                                                                                                                                                                                                                                                                                                                                                                                                                                                                                                                                                                                                                                                                                                                                                                                                              
E|--------------------3----|------------------0----|
B|-----------1-------------|---------1-------------|
G|--------2--------2-------|------2----------------|
D|-----2--------2--------2-|---2-----------2-----2-|
A|--0----------------------|0----------------------|
E|-------------------------|-----------------------|

    
                                                                                                                                                                                                                                                                                                                                                                                                                                                                                                                                                                                                                                                                                                                                                                                                                                                                                                                                                                                                                                                                                                                                                                                              
E|-----------0--------0----|---------1-----------3-|
B|-----------------0-----0-|-----------------------|
G|--------0-----0----------|------2-----------4----|
D|-----2-------------------|---3-----------5-------|
A|-------------------------|-----------------------|
E|--0----------------------|1-----------3----------|

    
                                                                                                                                                                                                                                                                                                                                                                                                                                                                                                                                                                                                                                                                                                                                                                                                                                                                                                                                                                                                                                                                                                                                                                                              
E|-------------------------|---------------0-------|
B|-------------------------|---------0--1----------|
G|-------------------------|------2----------------|
D|--------------0--2-------|---2-------------------|
A|--------2--3-------------|0-----------------2--3-|
E|-------------------------|-----------------------|

    
                                                                                                                                                                                                                                                                                                                                                                                                                                                                                                                                                                                                                                                                                                                                                                                                                                                                                                                                                                                                                                                                                                                                                                                              
E|-----------------------0-|---------0--------0----|
B|-----------1--------1----|-----------------------|
G|--------2----------------|------0--------------0-|
D|-----2-----------2-------|---2-----------2-------|
A|--0----------------------|-----------------------|
E|-------------------------|3----------------------|

    
                                                                                                                                                                                                                                                                                                                                                                                                                                                                                                                                                                                                                                                                                                                                                                                                                                                                                                                                                                                                                                                                                                                                                                                              
E|-------------------------|---------2-----------2-|
B|-----------0-----------3-|------3-----------3----|
G|--------2-----------2----|---2-----------2-------|
D|-----0-----------0-------|0----------------------|
A|-------------------------|-----------------------|
E|--3----------------------|-----------------------|

    
                                                                                                                                                                                                                                                                                                                                                                                                                                                                                                                                                                                                                                                                                                                                                                                                                                                                                                                                                                                                                                                                                                                                                                                              
E|-----------2--3--2-------|---------------------0-|
B|--------3-----------3----|---------1--------1----|
G|-----2-----------------2-|------2----------------|
D|--0----------------------|---2-----------2-------|
A|-------------------------|0----------------------|
E|-------------------------|-----------------------|

    
                                                                                                                                                                                                                                                                                                                                                                                                                                                                                                                                                                                                                                                                                                                                                                                                                                                                                                                                                                                                                                                                                                                                                                                              
E|-----------0--------0----|---------1-----------1--3-|
B|-------------------------|------3--3--------3-------|
G|--------0--------------0-|---2-----2-----2----------|
D|-----2-----------2-------|0--------0----------------|
A|-------------------------|--------------------------|
E|--3----------------------|--------------------------|

    
                                                                                                                                                                                                                                                                                                                                                                                                                                                                                                                                                                                                                                                                                                                                                                                                                                                                                                                                                                                                                                                                                                                                                                                              
E|--1--------1-----------1--3-|1--------1-----------1--3-|
B|--------3-----------3-------|3-----3-----------3-------|
G|-----2-----------2----------|2--2-----------2----------|
D|--0-------------------------|0-------------------------|
A|----------------------------|--------------------------|
E|----------------------------|--------------------------|

    
                                                                                                                                                                                                                                                                                                                                                                                                                                                                                                                                                                                                                                                                                                                                                                                                                                                                                                                                                                                                                                                                                                                                                                                              
E|--1----------------------|3----------------------|
B|--3----------------------|3----------------------|
G|--2----------------------|4----------------------|
D|--0----------------------|5----------------------|
A|-------------------------|5----------------------|
E|-------------------------|3----------------------|

    
                                                                                                                                                                                                                                                                                                                                                                                                                                                                                                                                                                                                                                                                                                                                                                                                                                                                                                                                                                                                                                                                                                                                                                                              
E|--3--------3--------3----|---------0--------0----|
B|-------------------------|-----------------------|
G|--------0--------0-----0-|------0--------0-----0-|
D|-----2--------2----------|---2--------2----------|
A|--3----------------------|3----------------------|
E|-------------------------|-----------------------|

    
                                                                                                                                                                                                                                                                                                                                                                                                                                                                                                                                                                                                                                                                                                                                                                                                                                                                                                                                                                                                                                                                                                                                                                                              
E|-----------0--------0----|-----------------------|
B|--------0--------0-------|---------1-----------3-|
G|-----0--------0--------0-|------2-----------4----|
D|-------------------------|---3-----------5-------|
A|--2----------------------|-----------------------|
E|-------------------------|1-----------3----------|

    
                                                                                                                                                                                                                                                                                                                                                                                                                                                                                                                                                                                                                                                                                                                                                                                                                                                                                                                                                                                                                                                                                                                                                                                              
E|--------------------3----|------------0----------|
B|-----------3-----------3-|---------1-----1-------|
G|--------4--------4-------|------0-----------0----|
D|-----5--------5----------|---2-----------------2-|
A|-------------------------|3----------------------|
E|--3----------------------|-----------------------|

    
                                                                                                                                                                                                                                                                                                                                                                                                                                                                                                                                                                                                                                                                                                                                                                                                                                                                                                                                                                                                                                                                                                                                                                                              
E|-------------------------|---------3-----------3-|
B|--1----------------------|-----------------------|
G|--0----------------------|------2-----------2----|
D|--2----------------------|---3-----------3-------|
A|--3----------------------|-----------------------|
E|-------------------------|1----------------------|

    
                                                                                                                                                                                                                                                                                                                                                                                                                                                                                                                                                                                                                                                                                                                                                                                                                                                                                                                                                                                                                                                                                                                                                                                              
E|-----------3-----------3-|-----------------------|
B|-------------------------|---------1--------3----|
G|--------2-----------2----|------0--0--------0----|
D|-----3-----------3-------|---2-----2-----2-----2-|
A|-------------------------|-----------------------|
E|--1----------------------|3----------------------|

    
                                                                                                                                                                                                                                                                                                                                                                                                                                                                                                                                                                                                                                                                                                                                                                                                                                                                                                                                                                                                                                                                                                                                                                                              
E|--3--------------------3-|---------------------3-|
B|-----------1-------------|---------1--------1----|
G|--------0-----------0----|------0----------------|
D|-----2-----------2-------|---2-----------2-------|
A|--3----------------------|2----------------------|
E|-------------------------|-----------------------|

    
                                                                                                                                                                                                                                                                                                                                                                                                                                                                                                                                                                                                                                                                                                                                                                                                                                                                                                                                                                                                                                                                                                                                                                                              
E|-----------3--------0----|-----------------------|
B|-----------1-------------|---------0--------3----|
G|--------2--------2-----2-|------0--0--------0----|
D|-----3-------------------|---0-----0-----0-----0-|
A|-------------------------|-----------------------|
E|--1----------------------|3----------------------|

    
                                                                                                                                                                                                                                                                                                                                                                                                                                                                                                                                                                                                                                                                                                                                                                                                                                                                                                                                                                                                                                                                                                                                                                                              
E|--3-----------------3----|---------------------3-|
B|-----------1-------------|---------3-------------|
G|--------0--------0-----0-|------0--0--------0----|
D|-----2--------2----------|---2-----------2-------|
A|--3----------------------|-----------------------|
E|-------------------------|0----------------------|

    
                                                                                                                                                                                                                                                                                                                                                                                                                                                                                                                                                                                                                                                                                                                                                                                                                                                                                                                                                                                                                                                                                                                                                                                              
E|--------------------0----|------------------0----|
B|-----------1-------------|---------3-----------3-|
G|--------2--------2-----2-|------0--1-------------|
D|-----2--------2----------|---2-----------2-------|
A|--0----------------------|-----------------------|
E|-------------------------|0----------------------|

About Đàm Vĩnh Hưng - Đàm Vĩnh Hưng (born 2 October 1971), often referred to by his nickname, Mr. Dam . He won 2 Dedication awards and multiple awards in Vietnam . Besides pop, he also performed many pre-war songs, Trinh Cong Son's songs and golden music . His second album, Bình Minh S��ỻ Mang Em � Đi boosted him into the A-list singers in Vietnam . His first official liveshow Trái Tim Hát was held in 2013, directed by the most famous director at that time . His 5th album Giọt Nư�ớc M��ắt Cho � Đời was given out . His second liveshow Gi�� H.H. H. was released in 2006 . Đàm Vĩnh Hưng's music is influenced by genre(s) - vietnam pop.

tabs and chords, guitar tabs, music transcription, music technology, deep learning, music information retrieval, transcribe into tabs & chords, chordify, music renditions, songsterr, reverbnation, tabulature, bollywood chords, ultimate guitar, yousician, guitar lessons, acoustic guitar, electric guitar, guitar tuner, 911 tabs