Guitar Tabs for ??ng Nh? Thói Quen Demo

(/) Slide Up  (\) Slide Down  (h) Hammer On  (p) Pull Off  (b) Bend (r) Release (v) Vibrato (x) Muted

Tabs for Song : 

Em t?ng là duy nh?t, là c? kho?ng tr?i trong anh
E|-----------------------------------
B|-----------------------------------
G|-----------4--6-----4--------------
D|--4-----4--------4-----7--------4--
A|-----7--------------------5--7-----
E|-----------------------------------
Nh?ng ??n bây gi? anh v?n nh? v?y .C? là c?n m?t kho?ng tr?ng 


E|--------------------------------------
B|--------------------------------------
G|--------------------------------------
D|--4--5--4-----4-----------------------
A|-----------7-----7--5--5--7--7---7\9--
E|--------------------------------------

Anh c?ng r?t s? ta ph?i xa nhau, Nh?ng tình yêu không nh? lúc tr??c 
E|-----------------------------------------------
B|-----------------------------------------------
G|--------------------------4--3--4--4---4\6--6--
D|--4--5--4--------4-----------------------------
A|-----------7--7-----7--5-----------------------
E|-----------------------------------------------
??ng ?? th?i gian bên nhau là thói quen. Là ? c?nh bên nh?ng r?t xa xôi 
E|--------------------------------------------------------
B|-----------------------5--7-----------------------------
G|-----4---6\7--7--7--7--------6-----------4---6\7--4-----
D|--4-----------------------------7--7--7--------------7--
A|--------------------------------------------------------
E|--------------------------------------------------------
T?ng ngày c?m giác trong tim c? th? phai ?i.L?c nhau ta ?âu có hay 
E|-----------------------------------------------------
B|-----------------------------------------------------
G|-----------------------------------4--4--4---7\9--6--
D|--4--4--7--7--5--5--5--5--4--4--7--------------------
A|-----------------------------------------------------
E|-----------------------------------------------------
??ng ?? yêu th??ng kia gi? là n?i ?au.  Cô ??n v? n?i c?n phòng ?y 

E|-----------------------------------------------------
B|--------------------5--7-----------------5------5\7--
G|------4\6--7--7--7--------6--7--6--4--7-----7--------
D|--4--------------------------------------------------
A|-----------------------------------------------------
E|-----------------------------------------------------
Dành t?t c? thanh xuân ?? th??ng m?t ng??i
E|--------------------------------------------------
B|--5--7--8--7--5-----7--5--------5-----5---7\8--7--
G|-----------------4--------7--7-----7--------------
D|--------------------------------------------------
A|--------------------------------------------------
E|--------------------------------------------------

E|--
B|--
G|--
D|--
A|--
E|--

Paste any tab in acousterr's tab maker and we'll play it !!!
Now supports capo and sound effects for vibrato/pull-off/hammer/bends/mutes etc !!! Checkout help section
tabs and chords, guitar tabs, music contests, music covers, songsterr, reverbnation, renditions, tabulature, bollywood chords, ultimate guitar, yousician, guitar lessons, torrins, fender, gibson, acoustic guitar, electric guitar, youtube covers, gootar, guitar tuner, A-Z tabs, 911 tabs