Guitar Tabs for New Tone Always Good

(/) Slide Up  (\) Slide Down  (h) Hammer On  (p) Pull Off  (b) Bend (r) Release (v) Vibrato (x) Muted

Tabs for Song : 

Song lyrics here
E|--7-----7-----------7-----------7-----7--------8-----------------------9-----------------------------------------
B|-----------9--9--9--------6--6--------------------9--------------6--8--------------------------15-15-15----------
G|-----8-----------------8-----------7-----9--9-----------------5-----------10----------------14-------------------
D|--------------------------------------------------------3--4-----------------11----------13----------------------
A|-----------------------------------------------------4--------------------------11----13----------------17-17-18-
E|-----------------------------------------------------------------------------------12----------------------------

Song lyrics here
DJE|5--------------6--6--10-------------------------------------------------------------------------------------------------------------18----54252JJ-----------------------------
B|-----7--7--------------------------------------------------------------------------------------------------------------------15----------------------------0--------2--
G|-----------8--6--------------------------------------------11----------------------13-13----------------5--------7--8-----12-------18----------------4-----------------
D|--------------------------------9-----------9--10-10-10-------12-------------10-10-------14-14----13-13-------7-----------------16-------19-------2--------------1-----
A|--------------------------10-10-------------------------10-------11-11-11-11-------------------------------5-----------12-------------------2--2--------4-----1--------
E|-----------------------------------10-10-9-----------------------------------------------------10----------------------------------------------------------------------

E|-----------------------------------------------------------------------------------------------------------------------------------------
B|--------21-21----------20----------------20----------20-20-20----------11-------------------22----------17-------------------------------
G|-----------------------------------------------------------------------------------7-----2-----------------------15----14----12----10-8--
D|--7--16-------18-------------------12----------------------------10-13----7--7--7-----9-----------20-18----16-16----15----13-------------
A|--------------------------------------9-----------10----------10----------------------------------------------------------------11-------
E|-----------------10-10----9--9--9-----------10-10----------------------------------------------21----------------------------------------

Paste any tab in acousterr's tab maker and we'll play it !!!
Now supports capo and sound effects for vibrato/pull-off/hammer/bends/mutes etc !!! Checkout help section
tabs and chords, guitar tabs, music transcription, music technology, deep learning, music information retrieval, transcribe into tabs & chords, chordify, music renditions, songsterr, reverbnation, tabulature, bollywood chords, ultimate guitar, yousician, guitar lessons, acoustic guitar, electric guitar, guitar tuner, 911 tabs