Guitar Tabs for Never Enough

(/) Slide Up  (\) Slide Down  (h) Hammer On  (p) Pull Off  (b) Bend (r) Release (v) Vibrato (x) Muted

Tabs for Song : 

Song lyrics here
E|--------------
B|-----------3--
G|--------0-----
D|-----0--------
A|--------------
E|--3-----------

E|-----------2--
B|--------3-----
G|-----2--------
D|--0-----------
A|--------------
E|--------------

E|--------------3-----------
B|--------0-----------------
G|-----0-----0--------------
D|--------------------------
A|--------------------------
E|--0-----------------------

E|-----------0--
B|--------1-----
G|-----0--------
D|--------------
A|--3-----------
E|--------------

E|-----------3--
B|--------3-----
G|-----0--------
D|--------------
A|--------------
E|--3-----------

E|--------------2-----------
B|--------3-----------------
G|-----2-----2--------------
D|--0-----------------------
A|--------------------------
E|--------------------------

Song lyrics here
E|--------------
B|-----------3--
G|--------0-----
D|-----0--------
A|--------------
E|--3-----------

E|-----------2--
B|--------3-----
G|-----2--------
D|--0-----------
A|--------------
E|--------------

E|--------------0-----------
B|--------0-----------------
G|-----0-----0--------------
D|--------------------------
A|--------------------------
E|--0-----------------------

E|--------------
B|-----------1--
G|--------0-----
D|-----2--------
A|--3-----------
E|--------------

E|-----------3--
B|--------3-----
G|-----0--------
D|--------------
A|--------------
E|--3-----------

E|--------------2-----------
B|--------3-----------------
G|-----2-----2--------------
D|--0-----------------------
A|--------------------------
E|--------------------------

Paste any tab in acousterr's tab maker and we'll play it !!!
Now supports capo and sound effects for vibrato/pull-off/hammer/bends/mutes etc !!! Checkout help section
tabs and chords, guitar tabs, music transcription, music technology, deep learning, music information retrieval, transcribe into tabs & chords, chordify, music renditions, songsterr, reverbnation, tabulature, bollywood chords, ultimate guitar, yousician, guitar lessons, acoustic guitar, electric guitar, guitar tuner, 911 tabs