Guitar Tabs for Nem Sei O Nome

(/) Slide Up  (\) Slide Down  (h) Hammer On  (p) Pull Off  (b) Bend (r) Release (v) Vibrato (x) Muted

Tabs for Song : 
BPM : 120

Song lyrics here 
e|--4-----2--4--2--4-----2--4--2--------------------------------------------------------------------------------------0--
B|--4--------4-----4--------4-----4--------4-----4-----3-----2-----0--2--0--2-----0--2--0--1-----0--1--0--1-----0--1-----
G|--4--------4-----4--------4-----4-----6-----6--------3-----2--------2-----2--------2-----2--------2-----2--------2-----
D|--2--------2-----2--------2-----4-----4-----4--------3-----2--------2-----2--------2-----2--------2-----2--------2-----
A|-----------------------------------------------------------------------------------------0--------0-----0--------0-----
E|--------------------------------4--------------------3-----2--------2-----2--------2-----------------------------------

e|--4-----2--4--2--4-----2--4--2--------------------------------------------------------------------------------------0--
B|--4--------4-----4--------4-----4--------4-----4-----3-----2-----0--2--0--2-----0--2--0--1-----0--1--0--1-----0--1-----
G|--4--------4-----4--------4-----4-----6-----6--------3-----2--------2-----2--------2-----2--------2-----2--------2-----
D|--2--------2-----2--------2-----4-----4-----4--------3-----2--------2-----2--------2-----2--------2-----2--------2-----
A|-----------------------------------------------------------------------------------------0--------0-----0--------0-----
E|--------------------------------4--------------------3-----2--------2-----2--------2-----------------------------------


Repetir até cansar
tabs and chords, guitar tabs, music transcription, music technology, deep learning, music information retrieval, transcribe into tabs & chords, chordify, music renditions, songsterr, reverbnation, tabulature, bollywood chords, ultimate guitar, yousician, guitar lessons, acoustic guitar, electric guitar, guitar tuner, 911 tabs