Neither Shape Nor Shadow - Be'lakor - Guitar Tabs

Tuning: DADGBE / Drop D

A# major
BPM : 102
3/4

E|--------------------------------------------------------------------------------------------
B|-----------------------13-------------------------------------------------------------------
G|--------------12-14-15----15-14-15-14-15-14-12----------------------------------------------
D|-----12-13-12----------------------------------12-13-13-13----------------------13-13-13-15-
A|--------------------------------------------------------------------------------------------
D|--------------------------------------------------------------------------------------------

E|--------------------------------------------------------------------------------------------
B|-----------------------13-------------------------------------------------------------------
G|--------------12-14-15----15-14-15-14-15-14-12----------------------------------------------
D|-----12-13-12----------------------------------12-13-13-13----------------------13-13-13-13-
A|--------------------------------------------------------------------------------------------
D|--------------------------------------------------------------------------------------------

E|--------------------------------------------------------------------------
B|-----------------------------------------------15-------------------------
G|--------12-15----12-15-15-14-15-14-------14-15-------12-------------------
D|-----13-------13----------------------------------15----15-17-------------
A|--------------------------------------------------------------------------
D|--------------------------------------------------------------------------
                               x3
E|----------------------------|---------------------------------------------
B|----------------------------|---------------------------------------------
G|--------12-15----------14-15|14-15-14-15-14-15-14-15-14-15-14-15-14-15-14-
D|-----13---------------------|---------------------------------------------
A|----------------------------|---------------------------------------------
D|----------------------------|---------------------------------------------

BPM : 118
4/4

Three below x2
E|-----------------------------------------------------------------------------------
B|--------------------------------18----16-15----------13-16-15-13-------------------
G|--------------12-14-15-14-------------------17-14----------------15-15-17-12-------
D|-----12-13-12-------------------------------------15-------------------------16----
A|-----------------------------------------------------------------------------------
D|-----------------------------------------------------------------------------------
|
E|-----------------------------
B|-----15----15-16-15-13-------
G|-----------------------15-14-
D|-----------------------------
A|-----------------------------
D|-----------------------------
|
E|-------------------------------------------------------------------------------------------------|---
B|--------------------------------18----16-15----------13-16-15-13---------------------------------|---
G|--------------12-14-15-14-------------------17-14----------------15-15-17-12----------19v--------|12v
D|-----12-13-12-------------------------------------15-------------------------16v-----------------|---
A|-------------------------------------------------------------------------------------------------|---
D|-------------------------------------------------------------------------------------------------|---

BPM : 122

E|--------------------------------------------------------------------------
B|--------------------------------------------------------------------------
G|--------------------------------------------------------------------------
D|--------------------------------------------------------------------------
A|-----5-----------------------3-----------------------1--------------------
D|-----5-----------------------3-----------------------1--------------------

E|--------------------------------------------------------------------------
B|--------------------------------------------------------------------------
G|--------------------------------------------------------------------------
D|--------------------------------------------------------------------------
A|-----3-----------------------5-----------------------3--------------------
D|-----3-----------------------5-----------------------3--------------------

E|--------------------------------------------------------
B|--------------------------------------------------------
G|--------------------------------------------------------
D|--------------------------------------------------------
A|-----1--1--1--1--1--1--1--1--3--3--3--3--3-----------5--
D|-----1--1--1--1--1--1--1--1--3--3--3--3--3-----------5--

E|--------------------------------------------------------------------------------------
B|--------------------------------------------------------------------------------------
G|--------------------------------------------------------------------------------------
D|--8--8--8--8--7--7--7--7--8--8--8--8--10-10-10-10-8--8--8--8--7--7--7--7--8--8--8--8--
A|--------------------------------------------------------------------------------------
D|--------------------------------------------------------------------------------------

E|--------------------------------------------------------------------------------------------------
B|--------------------------------------------------------------------------------------------------
G|--------------------------------------------------------------------------------------------------
D|--8--8--8--8--------------7--7--7--7--8--8--8--8--10-10-10-10-8--8--8--8--7--7--7--7--8--8--8--8--
A|--------------10-10-10-10-------------------------------------------------------------------------
D|--------------------------------------------------------------------------------------------------

E|--------------------------------------------------------------------------------------------------
B|--------------------------------------------------------------------------------------------------
G|--------------------------------------------------------------------------------------------------
D|--7--7--7--7--8--8--8--8--7--7--7--7--8--8--8--8--10-10-10-10-8--8--8--8--7--7--7--7--8--8--8--8--
A|--------------------------------------------------------------------------------------------------
D|--------------------------------------------------------------------------------------------------

E|--------------------------------------------------------------------------------------------------
B|--------------------------------------------------------------------------------------------------
G|--------------------------------------------------------------------------------------------------
D|--8--8--8--8--------------7--7--7--7--8--8--8--8--10-10-10-10-8--8--8--8--7--7--7--7--8--8--8--8--
A|--------------10-10-10-10-------------------------------------------------------------------------
D|--------------------------------------------------------------------------------------------------

E|--------
B|--------
G|--------
D|-----8v-
A|--------
D|--------

BPM: 117

E|-----------------------------------------------------------------------------
B|-----------------------------------------------------------------------------
G|-----7--------5-----------5-----------------------5--------------------------
D|-----------------------8-----------------------------------8--------7--8-----
A|-----------------------------------------------------------------------------
D|-----------------------------------------------------------------------------

E|-----------------------------------------------------------------------------
B|-----------------------------------------------------------------------------
G|-----7--------5-----------5-----------------------5--------------------------
D|-----------------------8-----------------------------------8--------7--7-----
A|-----------------------------------------------------------------------------
D|-----------------------------------------------------------------------------

E|--------------------------------------------------------------------6--5-----
B|--------------------------------------------------6--------8-----------------
G|-----------5--------7--------8-----7--------7--8-----------------------------
D|-----7--8--------------------------------------------------------------------
A|-----------------------------------------------------------------------------
D|-----------------------------------------------------------------------------

E|--------------------10-------11----10-11-10-8--10-8--6--8--6--5--6--5v-------
B|-----10-11-13----------------------------------------------------------------
G|-----------------------------------------------------------------------------
D|-----------------------------------------------------------------------------
A|-----------------------------------------------------------------------------
D|-----------------------------------------------------------------------------

x2
E|-----------------------------------------------------------------------------------
B|-----------------------------------------------------------------------------------
G|-----------------------------------------------------------------------------------
D|-----------------------------------------------------------------------------------
A|-----5--5--------------------5--5--------------------1--1--------------------1--1--
D|-----5--5--------------------5--5--------------------1--1--------------------1--1--


BPM: 108

Four below x5 & D is palm muted
E|--------------------------------------------------
B|--------------------------------------------------
G|--------------------------------------------------
D|--------------8-----7-----------5-----8-----7-----
A|--------------------------5-----------------------
D|--5--5--5--5-----5-----5-----5-----5-----5-----5--
|
E|--------------------------------------------------
B|--------------------------------------------------
G|--------------------------------------------------
D|--------------5-----3-----------------3-----1-----
A|--------------------------------------------------
D|--3--3--3--3-----3-----3--1--1--1--1-----1-----1--
|
E|--------------------------------------------------
B|--------------------------------------------------
G|--------------------------------------------------
D|--------------8-----7-----------5-----8-----7-----
A|--------------------------5-----------------------
D|--5--5--5--5-----5-----5-----5-----5-----5-----5--
|
E|--------------------------------------------------
B|--------------------------------------------------
G|--------------------------------------------------
D|--------------10----8-----------------12----13----
A|--------------------------------------------------
D|--8--8--8--8-----8-----8--10-10-10-10----10----10-

Both below x2
E|--------------------------------------------------------
B|-----------------------------------------------3--------
G|-----7-----5--------7--5--------5-----3--------------3--
D|--------------5--8--------------------------------------
A|--------------------------------------------------------
D|--------------------------------------------------------
|
E|--------------------------------------------------------
B|--------------------------------------------------------
G|-----7-----5--------7--5--------8-----7--------5-----7--
D|--------------5--8--------------------------------------
A|--------------------------------------------------------
D|--------------------------------------------------------

BPM: 106

x2 - second time palm muted
E|--------------------------------------------------------------------------------------------------
B|--------------------------------------------------------------------------------------------------
G|--------------------------------------------------------------------------------------------------
D|--13-13-13-13-13-13-13-13-13-13-13-13-13-13-13-13-10-10-10-10-10-10-10-10-------------------------
A|--------------------------------------------------------------------------12-12-12-12-12-12-12-12-
D|--------------------------------------------------------------------------------------------------

E|--------------------------------------------------------------------------------------------------
B|--------------------------------------------------------------------------------------------------
G|--------------------------------------------------------------------------------------------------
D|--------------------------------------------------------------------------12-12-12-12-12-12-12-12-
A|--13-13-13-13-13-13-13-13-13-13-13-13-13-13-13-13-13-13-13-13-13-13-13-13-------------------------
D|--------------------------------------------------------------------------------------------------

E|--------------------------------------------------------------------------------------------------
B|--------------------------------------------------------------------------------------------------
G|--------------------------------------------------------------------------------------------------
D|--13-13-13-13-13-13-13-13-13-13-13-13-13-13-13-13-10-10-10-10-10-10-10-10-10-10-10-10-10-10-10-10-
A|--------------------------------------------------------------------------------------------------
D|--------------------------------------------------------------------------------------------------

E|--------------------------------------------------------------------------------------------------
B|--------------------------------------------------------------------------------------------------
G|--------------------------------------------------------------------------------------------------
D|--12-12-12-12-12-12-12-12-12-12-12-12-12-12-12-12-12-12-12-12-12-12-12-12-12-12-12-12-12-12-12-12-
A|--------------------------------------------------------------------------------------------------
D|--------------------------------------------------------------------------------------------------

E|--------
B|--------
G|--------
D|--------
A|-----5v-
D|-----5v-

Four below x3
E|--------------------------------------------------
B|--------------------------------------------------
G|--------------7-----5-----------3-----7-----5-----
D|--5--5--5--5-----5-----5--5--5-----5-----5-----5--
A|--------------------------------------------------
D|--------------------------------------------------
|
E|--------------------------------------------------
B|--------------------------------------------------
G|--------------3-----2-----------------2-----3-----
D|--5--5--5--5-----5-----5--5--5--5--5-----5-----5--
A|--------------------------------------------------
D|--------------------------------------------------
|
E|--------------------------------------------------
B|--------------------------------------------------
G|--------------7-----5-----------3-----7-----5-----
D|--5--5--5--5-----5-----5--5--5-----5-----5-----5--
A|--------------------------------------------------
D|--------------------------------------------------
|
E|--------------------------------------------------
B|--------------------------------------------------
G|--------------8-----7-----------------7-----8-----
D|--8--8--8--8-----8-----8--10-10-10-10----10----10-
A|--------------------------------------------------
D|--------------------------------------------------

BPM : 120

E|--------------------------------------------------------------------
B|-----------------------13----------------------------------------15-
G|--------------12-14-15----------------------------------12-14-15----
D|-----12-13-12----------------------------------12-13-12-------------
A|--------------------------------------------------------------------
D|--------------------------------------------------------------------

E|--------------------------------------------------------------------------------------------------
B|-----------------------13----------------------------------------15-------13----11-13-11-10-8--10-
G|--------------12-14-15----------------------------------15-14-12----------------------------------
D|-----12-13-12----------------------------------12-13-12-------------------------------------------
A|--------------------------------------------------------------------------------------------------
D|--------------------------------------------------------------------------------------------------

BPM: 101

Both below x4
    x3
E|-----------------------------------------
B|-----------------------------------------
G|-----------------------------------------
D|-----8-----7--5-----5--8-----7--5-----5--
A|-----------------------------------------
D|-----------------------------------------
|   x1
E|-----------------------------------------
B|-----------------------------------------
G|--------------------------------5--7--8--
D|-----8-----7--5--------7--5--8-----------
A|-----------------------------------------
D|-----------------------------------------

BPM : 102

x4
E|--------------------------------------------------------------------------
B|--------------------------------------------------------------------------
G|-----------------5-----------------7--8--7--5--7--5-----5-----------------
D|-----5-----7--8-----8--7--5--7--8--------------------8-----8--7--8--7--5--
A|--------------------------------------------------------------------------
D|--------------------------------------------------------------------------
|
E|--------------------------------------------------------------------------
B|--------------------------------------------------------------------------
G|-----------5--------------------------------------5-----------------------
D|-----7--8-----8--7--------7--8--7-----------7--8-----8--7--------7--8--5--
A|--------------------------------------------------------------------------
D|--------------------------------------------------------------------------

E|-----------------------------------------------------------------------------
B|-----------------------------------------------------------------------------
G|--------------2--------3--------2--------3--------3--------2--------3--------
D|-----5--5--5-----5--5-----5--5-----5--5-----5--5-----5--5-----5--5-----5--5--
A|-----------------------------------------------------------------------------
D|-----------------------------------------------------------------------------

E|--------------------------------------
B|--------------------------------------
G|--------------------------------------
D|-----------------------------------5--
A|-----1-----------------------------3--
D|-----1--------------------------------

x2
E|-----------------------------------------------------------------------------
B|-----------------------------------------------------------------------------
G|--------------2--------3--------2--------8--7--5-----------------------8-----
D|-----5--5--5-----5--5-----5--5-----5--5-----------8--7--5--5--7--8--8-----7--
A|-----------------------------------------------------------------------------
D|-----------------------------------------------------------------------------

x4
E|-----------------------------------------------------------------------------
B|-----------------------------------------------------------------------------
G|-----------------------------------------7--7--7-----------------------------
D|-----5--5--5--7--7--7--8--8--8--5--5--5-----------8--8--8--7--7--7--5--5--5--
A|-----------------------------------------------------------------------------
D|-----------------------------------------------------------------------------
tabs and chords, guitar tabs, music transcription, music technology, deep learning, music information retrieval, transcribe into tabs & chords, chordify, music renditions, songsterr, reverbnation, tabulature, bollywood chords, ultimate guitar, yousician, guitar lessons, acoustic guitar, electric guitar, guitar tuner, 911 tabs