Guitar Tabs for Nb

(/) Slide Up  (\) Slide Down  (h) Hammer On  (p) Pull Off  (b) Bend (r) Release (v) Vibrato (x) Muted

Tabs & Chords
BPM : 89.0
Check Track 2 for Chord Positions 

             C                             C  D#             Cm          C                    
E|-----------------3--------3-----------------------------------------------------------------
B|--1-----------------------------------------------------------------------------------------
G|--3--3--5-----------------------------------------------------------------------------------
D|--------------------------------------------------------4-----------------------------------
A|-----------3--7-----3--3--3-----0--3--------6--------------3--3-----3--0--6--0--3-----3--3--
E|-----------1--------1--------0--3-----1--3-----6--6--4--2--------1-----------6-----0--1-----

       Cm          D#    A#                                           C                    C  
E|--------------------------------------------------------------------------------------------
B|-----------------------------6-----------------------------4-----6--6-----------------------
G|--------------------------------------------------------------------------------------------
D|-----3--0-----4-----0-----------------------------0--4--------0--------4-----3--------------
A|--6--------3-----------6--------------------0--3--------6--------------------------3--7-----
E|-----------------6--------6-----6--6--1--1-----------------------6--------------6-----6--7--

                                                                                              
E|-----3-----------0--------------------------------------18----------------------------------
B|-----------3--------------------------0-----------------------------------------------------
G|--------------------------------------5--------------------------------------5--------------
D|-----------0--0-----3--------------------------2-----------------------------------3--------
A|--------3--------------3--3-----3--0-----3-----6-----3--------------3--3--7-----0-----0--7--
E|-----------------------------6-----------------------------0--6--7--------0-----------------

                      C                 
E|--------------------------------------
B|--------------------------------------
G|-----------5--------------------------
D|--------0-----------------------------
A|--3--7--------3--------3--6--3-----3--
E|-----------------6--3-----------------

Guitar Tabs for Nb






             C                             C  D#             Cm          C                    
E|-----------0-----------------------------0--6--------------3-----------0--------------------
B|-----------1-----------------------------1--8--------------4-----------1--------------------
G|-----------0-----------------------------0--8--------------5-----------0--------------------
D|-----------2-----------------------------2--8--------------5-----------2--------------------
A|-----------3-----------------------------3--6--------------3-----------3--------------------
E|--------------------------------------------------------------------------------------------

       Cm          D#    A#                                           C                    C  
E|-----3-----------6-----1--------------------------------------------0--------------------0--
B|-----4-----------8-----3--------------------------------------------1--------------------1--
G|-----5-----------8-----3--------------------------------------------0--------------------0--
D|-----5-----------8-----3--------------------------------------------2--------------------2--
A|-----3-----------6-----1--------------------------------------------3--------------------3--
E|--------------------------------------------------------------------------------------------

                                                                                              
E|--------------------------------------------------------------------------------------------
B|--------------------------------------------------------------------------------------------
G|--------------------------------------------------------------------------------------------
D|--------------------------------------------------------------------------------------------
A|--------------------------------------------------------------------------------------------
E|--------------------------------------------------------------------------------------------

                      C                 
E|--------------------0-----------------
B|--------------------1-----------------
G|--------------------0-----------------
D|--------------------2-----------------
A|--------------------3-----------------
E|--------------------------------------

tabs and chords, guitar tabs, music transcription, music technology, deep learning, music information retrieval, transcribe into tabs & chords, chordify, music renditions, songsterr, reverbnation, tabulature, bollywood chords, ultimate guitar, yousician, guitar lessons, acoustic guitar, electric guitar, guitar tuner, 911 tabs