Guitar Tabs for National Anthem Metal

(/) Slide Up  (\) Slide Down  (h) Hammer On  (p) Pull Off  (b) Bend (r) Release (v) Vibrato (x) Muted

Tabs for Song : 
BPM : 400

Song lyrics here
B|--------------------------------------------------------------------------------------------------------
F|-----------------------------------------------------------8--------------------------------------------
D|--7-----------4--------------------4-----------7--------------------------------------------------------
A|--------------------5-----------------------------------------------------------7-----------4-----------
E|--------------------------------------------------------------------------------------------------5-----
A|--------------------------------------------------------------------------------7-----------4-----0-----

B|--------------------------------------------------------------------------------------------------------
F|--------------------------------------------------------8-----------5-----3-----------------------------
D|-----------------------------------7--------------------------------------------------------------------
A|-----------4-----------6-----------5--------------------5-----------2-----0--------------5-----------7--
E|-----------4-----------6-----------5-----------------------------------------------------5-----------7--
A|-----------4-----------6-----------5-----------------------------------------------------5-----------7--

B|--------------------x--x-----------------------
F|--------------------x--x-----------------------
D|--------------------x--x-----------------------
A|--------8-----------x--x-----8--------8--------
E|--------8-----------x--x-----8--------8--------
A|--------8-----------x--x-----8--------8--------

B|-----------------------------------------------------------
F|--8-----------5-----3--------0--2--3--0--2--3--0--2--3--0--
D|-----------------------------------------------------------
A|--5-----------2-----0--------------------------------------
E|-----------------------------------------------------------
A|-----------------------------------------------------------

B|--
F|--
D|--
A|--
E|--
A|--

B|--
F|--
D|--
A|--
E|--
A|--

Song lyrics here
B|--
F|--
D|--
A|--
E|--
A|--

Paste any tab in acousterr's tab maker and we'll play it !!!
Now supports capo and sound effects for vibrato/pull-off/hammer/bends/mutes etc !!! Checkout help section
tabs and chords, guitar tabs, music transcription, music technology, deep learning, music information retrieval, transcribe into tabs & chords, chordify, music renditions, songsterr, reverbnation, tabulature, bollywood chords, ultimate guitar, yousician, guitar lessons, acoustic guitar, electric guitar, guitar tuner, 911 tabs