Guitar Tabs for Nashe si chadh gyi

Tabs for Song : Nashe si chadh gayi oye

nashe si chadh gyi oye
E|--------------------------
B|-----0--1--0--------1-----
G|--2-----------2--2--------
D|--------------------------
A|--------------------------
E|--------------------------

kudi nashe si chadh gayi

E|-----------------------------
B|--1--0-----0--1--0-----------
G|--------2-----------2--2-----
D|-----------------------------
A|-----------------------------
E|-----------------------------

patang si lad gayi oye

E|-----------------------------
B|--------0--------------0-----
G|--0--2-----2--0--0--2--------
D|-----------------------------
A|-----------------------------
E|-----------------------------

kudi patang si lad gayi

E|-----------------------------
B|--1--0-----0--1--0-----------
G|--------2-----------2--2-----
D|-----------------------------
A|-----------------------------
E|-----------------------------

aise khenche dil ke penche

E|--------------------------------
B|-----0--1--1-----0--1--3--3-----
G|--2-----------------------------
D|--------------------------------
A|--------------------------------
E|--------------------------------

gale hi pad gayi oye..hoye

E|--0--0--1--0--------0-----------
B|--------------3--------3--1-----
G|--------------------------------
D|--------------------------------
A|--------------------------------
E|--------------------------------

nashe si chadh gayi oye

E|--------------------------
B|-----0--1--0--------1-----
G|--2-----------2--2--------
D|--------------------------
A|--------------------------
E|--------------------------

kudi nashe si chadh gayi

E|-----------------------------
B|--1--0-----0--1--0-----------
G|--------2-----------2--2-----
D|-----------------------------
A|-----------------------------
E|-----------------------------

patang si lad gayi oye

E|-----------------------------
B|--------0--------------0-----
G|--0--2-----2--0--0--2--------
D|-----------------------------
A|-----------------------------
E|-----------------------------

kudi patang se lad gayi

E|-----------------------------
B|--1--0-----0--1--0-----------
G|--------2-----------2--2-----
D|-----------------------------
A|-----------------------------
E|-----------------------------

o udti patang jaise

E|-----------------------------
B|--1--1--3--1--3--1--1--1-----
G|-----------------------------
D|-----------------------------
A|-----------------------------
E|-----------------------------

mast maganjaise

E|--------------------------
B|--1--3--1--3--1--1--1-----
G|--------------------------
D|--------------------------
A|--------------------------
E|--------------------------

masti s chadh gayi humko turant aise

E|-----------------------------------------------
B|--0--1--0--1--0--0--0--0--1--0--1--0--0--0-----
G|-----------------------------------------------
D|-----------------------------------------------
A|-----------------------------------------------
E|-----------------------------------------------

lagti current jaise

E|--------------------------
B|-----0-----0--------------
G|--2-----2-----2--2--2-----
D|--------------------------
A|--------------------------
E|--------------------------

nikla warrant jaise

E|--------------------------
B|-----0-----0--------------
G|--2-----2-----2--2--2-----
D|--------------------------
A|--------------------------
E|--------------------------

abhi abhi utra ho net se torrent jaise

E|-----------------------------------------------------
B|--------------------------------------0--0--1--0-----
G|--------------------0--0--1--1--2--2-----------------
D|--0--0--2--2--3--3-----------------------------------
A|-----------------------------------------------------
E|-----------------------------------------------------

nashe si chadh gyi oye

E|--------------------------
B|-----0--1--0--------1-----
G|--2-----------2--2--------
D|--------------------------
A|--------------------------
E|--------------------------

kudi nashe si chadh gayi

E|-----------------------------
B|--1--0-----0--1--0-----------
G|--------2-----------2--2-----
D|-----------------------------
A|-----------------------------
E|-----------------------------

patang si lad gayi oye

E|-----------------------------
B|--------0--------------0-----
G|--0--2-----2--0--0--2--------
D|-----------------------------
A|-----------------------------
E|-----------------------------

kudi patang si lad gayi

E|-----------------------------
B|--1--0-----0--1--0-----------
G|--------2-----------2--2-----
D|-----------------------------
A|-----------------------------
E|-----------------------------

khilti basant jaise

E|--------------------------
B|--1--1--3--1--3--1--1--1--
G|--------------------------
D|--------------------------
A|--------------------------
E|--------------------------

dhulta kalank jaise

E|--------------------------
B|--1--3--1--3--1--1--1-----
G|--------------------------
D|--------------------------
A|--------------------------
E|--------------------------

dil ki daraar mein ho pyar ka cement jaise

E|-----------------------------------------------
B|--0--1--0--1--0--0--0--0--1--0--1--0--0--0-----
G|-----------------------------------------------
D|-----------------------------------------------
A|-----------------------------------------------
E|-----------------------------------------------

akhiyon hi akhiyon mein

E|--------------------------
B|-----0-----0--------------
G|--2-----2-----2--2--2-----
D|--------------------------
A|--------------------------
E|--------------------------

jung ki front jaise

E|--------------------------
B|-----0-----0--------------
G|--2-----2-----2--2--2-----
D|--------------------------
A|--------------------------
E|--------------------------

mil jaye sadiyon se atka refund jaise

E|-----------------------------------------------------
B|--------------------------------------0--0--1--0-----
G|--------------------0--0--1--1--2--2-----------------
D|--0--0--2--2--3--3-----------------------------------
A|-----------------------------------------------------
E|-----------------------------------------------------

zubaan pe chadh oye

E|--------------------------
B|-----0--1--0--------1-----
G|--0-----------2--2--------
D|--------------------------
A|--------------------------
E|--------------------------

kudi zubaan pe chadh 

E|-----------------------------
B|--1--0-----0--1--0-----------
G|--------2-----------2--2-----
D|-----------------------------
A|-----------------------------
E|-----------------------------

lahu mein bandh gayi oye

E|-----------------------------
B|--------0--------------0-----
G|--0--2-----2--0--0--2--------
D|-----------------------------
A|-----------------------------
E|-----------------------------

kudi lahu mein bandh gayi

E|-----------------------------
B|--1--0-----0--1--0-----------
G|--------2-----------2--2-----
D|-----------------------------
A|-----------------------------
E|-----------------------------

tabs and chords, guitar tabs, music contests, music covers, songsterr, reverbnation, renditions, tabulature, bollywood chords, ultimate guitar, yousician, guitar lessons, torrins, fender, gibson, acoustic guitar, electric guitar, youtube covers, gootar, guitar tuner, A-Z tabs, 911 tabs