Guitar Tabs for Naruto S - Departure To The Front Lines

(/) Slide Up  (\) Slide Down  (h) Hammer On  (p) Pull Off  (b) Bend (r) Release (v) Vibrato (x) Muted

Tabs for Song : 
BPM : 400

Song lyrics here 
E|--------------5--5--7--7--------5--5--7--7--9--9--5--5--7--7--9--9--10-10-7--7--9--9--10-10-12-12-14-14-14-14----14----14-14----14----13-13-13-13----13----13-13----13----14v---
B|--7--7--9--9--------------9--9--------------------------------------------------------3--3--5--5--7--7--7--7-----7-----7--7-----7-----6--6--6--6-----6-----6--6-----6-----7v----
G|--------------------------------------------------------4--4--6--6--7--7--4--4--6--6--9--9--11-11-14-14-14-14----14----14-14----14----13-13-13-13----13----13-13----13----14v---
D|--------------------------------------------------7--7--------------------11-11-12-12-------2--2--4--4--4--4-----4-----4--4-----4-----3--3--3--3-----3-----3--3-----3-----4v----
A|--------------------2--2--------------2--2--4--4--------2--2--4--4--5--5--2--2--4--4--5--5--------------------------------------------------------------------------------------
E|--2--2--4--4--5--5--------4--4--5--5--------------5--5--------------------------------------------------------------------------------------------------------------------2v-2--

Song lyrics here 
E|--------------------------------------------------------------------------------------------------------
B|--------------------------------------------------------------------------------------------------------
G|-----------------------------------------------------------------------------------------------------
D|-----------------------------------------------------------------------------------------------------
A|-----------------------------------------------------------------------------------------------------
E|--2--2-----2-----2--2-----2-----2--2--2--2-----2-----2--2-----2-----2--2--2--2-----2-----2--2-----2--

E|--------------------------------------------------------------------------------------------------------------
B|--------------------------------------------------------------------------------------------------------------
G|--------------------------------------------------------------------------------------------9-----------------
D|--------------------------------------7-----------6-----------7-----------9-----------------------9-----------
A|--------------------------------------------------------------------------------------------------------------
E|--2--2--2--2-----2-----2--2-----2-----2--2--2--2-----2-----2--2-----2-----0--0--0--0-----0-----0--0-----0-----

E|--------------------------------------------------------------------------------------------------------------
B|--------------------------------------------------------------------------------------------------------------
G|--6-----------7-----------6-----------------------11----------9-----------11----------13----------14----------
D|--------------------------------------4-----------------------------------------------------------4-----------
A|--------------------------------------------------------------------------5-----------------------------------
E|--5--5--5--5-----5-----5--5-----5-----5--5--5--5-----5-----5--5-----5-----2--2--2--2-----2-----2--2-----2-----

E|------------------------------------------------------------------------------------------------------------
B|--------------------12----------------14----------------15----14----------12-------------------------------
G|--13----------------------9-----------7-----------------------------------9--------------------------------
D|--2-----------------------6-----------4-----------------------------------6-----------7-----------9--------
A|-----------------------------------------------------------------------------------------------------------
E|--4--4--4--4-----4-----4--4-----4-----5--5--5--5-----5-----5--5-----5-----7--7--7--7-----7-----7--7-----7--

E|--------------2-----------------------------------------12----------------
B|--10----------9-----------------------12----------------------12----------
G|--11----------------------9-----------4-----------------------------------
D|--7-----------6-----------2-----------14----------------------------------
A|--------------------------------------------------------------------------
E|--2--2--2--2-----2-----2--2-----2-----4--4--4--4-----4-----4--4-----4-----

E|--------------------------------------------------------------------------
B|--14----------15----------14----------10----------------------------------
G|--14----------------------------------11-------------6-----7--6-----------
D|--11----------------------------------4-----------------------------------
A|--------------------------------------11----------------------------------
E|--5--5--5--5-----5-----5--5-----5-----5--5--5--5-----5-----5--5-----5-----

E|--------------------------------------------------------------------------
B|--7-----------------------------------5-----------------12----------------
G|--11----------13----------14----------13----------------------9-----------
D|--4-----------------------------------6-----------------------------------
A|--------------------------------------------------------------------------
E|--2--2--2--2-----2-----2--2-----2-----4--4--4--4-----4-----4--4-----4-----

E|--------------------------------------=---------------------------------
B|--3-----------------------------------5--------------------------------
G|--11----------6------------7\11-------13-------------------------------
D|--7-----------------------------------9--------------------------------
A|-----------------------------------------------------------------------
E|--5--5--5--5-----5-----5---5\---5-----7--7--7--7-----7-----7--7-----7--

E|--------9--7--5-----7--5v-4-----5--4--5--4--5--7--------9--7--5-----10-7--9-----9--7--5--5--7--7--
B|--------10-9--7-----9--7v-5-----7--5--7--5--7--9--------10-9--7-----12-9--10----10-9--7--7--9--9--
G|--------6--4--2-----4--2v-1-----2--1--2--1--2--4--------6--4--2-----7--4--6-----6--4--2--2--4--4--
D|--------------------------------------------------------------------------------------------------
A|--4v----------------------4-----------------------4v----------------------------------------------
E|--2v----------------------2-----------------------2v----------------------------------------------

E|--------9--7--5-----7--5--4-----5--4--5--4--5--7--------9--7--5-----10-7--------------------------
B|--------10-9--7-----9--7--5-----7--5--7--5--7--9--------10-9--7-----12-9--------------------------
G|--------6--4--2-----4--2--1-----2--1--2--1--2--4--------6--4--2-----7--4--------------------6--6--
D|--------------------------------------------------------------------------------4--4--6--6--------
A|--4v----------------------4-----------------------4v----------------------4--4--------------------
E|--2v----------------------2-----------------------2v----------------------------------------------

E|--------------------------------------------------------------------------------------------------
B|--------13-12-10----12-10-8-----10-8--6--5--6--8--------13-12-10----15-12-13----13-13-10-10-12-12-
G|--------9--7--5-----7--5--4-----5--4--5--4--5--7--------9--7--5-----10-7--9-----9--9--5--5--7--7--
D|--------------------------------------------------------------------------------------------------
A|--7v----------------------------------------------7v----------------------------------------------
E|--5v----------------------------------------------5v----------------------------------------------

E|--------------------------------------------------------------------------
B|--------13-12-10----12-10-8-----10-8--6--5--6--8--------13-12-10----15-12-
G|--------9--7--5-----7--5--4-----5--4--5--4--5--7--------9--7--5-----10-7--
D|--------------------------------------------------------------------------
A|--7v----------------------------------------------7v----7--7--7-----7--7--
E|--5v----5--5--5-----5--5--5-----5--5--5--5--5--5--5v----5--5--5-----5--5--

E|--------------------------7--7--12-12-14-14-19-19-14-14v------
B|--------------12-12-17-17-------------------14-14-------------
G|--------14-14-------11-11-------11-11-13-13-6--6--13-13v------
D|--14-14-9--9--11-11-------11-11-4--4--6--6--------6--6v-------
A|--9--9--------------------4--4--------------------------------
E|--------------------------------------------------------------

E|--17v------------16v------17v---------19v---12v---21v---------------------------------21v---------
B|--10v------------9v-------10v---------12v---17v---14v---------5v----------------------14v---------
G|--6v----------------------------------------------9v----------------------------------------------
D|--4v----------------------------------6v----------7v----------------------------------------------
A|--------------------------------------------------------------7v----------4v----------------------
E|--------------------------------------------------------------------------------------5v----------

E|--22v---------------14----22v---------14----19----17v---------------------16v----------------
B|--15v---------------7-----15v---------------12----10v---------------------9v----------------
G|--7v----------------------------------11----------4v----------------------4v----------------
D|--------------------------4v----------------------------------------------------------------
A|--------------------------------------------------------------------------------------------
E|--2v----------------2-----------------------------7v----------------------7v----------------

E|--17v------------16-------17v---------19v---12v---21v---------------------------------21v---------
B|--10v------------9--------10v---------12v---17v---14v---------5v----------------------14v---------
G|--6v----------------------------------6v----------9v----------------------------------------------
D|--7v----------------------------------------------7v----------------------------------------------
A|--------------------------------------------------------------7v----------4v----------------------
E|--------------------------------------------------------------------------------------5v----------

E|--22----------------14----22v---------17----19----17v------------------16v------------------
B|--15----------------7-----15v---------10----12----17v------------------12v------------------
G|--7-----------------------------------------------4v-------------------4v-------------------
D|--------------------------4v-------------------------------------------9v-------------------
A|--------------------------------------------------------------------------------------------
E|--2-----------------2-----------------------------7v-------------------7v-------------------

E|--17v------------16v---17v---------19v---12v---21v---------------------------------21v---------
B|--10v------------9v----10v---------12v---17v---14v---------5v----------------------14v---------
G|--6v-------------------------------------------9v----------------------------------------------
D|--4v-------------------------------6v----------7v----------------------------------------------
A|-----------------------------------------------------------7v----------4v----------------------
E|-----------------------------------------------------------------------------------5v----------

E|--22v------------14-------22v---------14----19----17v------------------------16v------------------
B|--15v------------7--------15v---------------12----10v------------------------9v-------------------
G|--7v----------------------------------11----------4v-------------------------4v-------------------
D|--------------------------4v----------------------------------------------------------------------
A|--------------------------------------------------------------------------------------------------
E|--2v-------------2--------------------------------7v-------------------------7v-------------------

E|--17v------------16v---17v---------19v---12v---21v---------------------------------21v---------
B|--10v------------9v----10v---------12v---17v---14v---------5v----------------------14v---------
G|--6v-------------------------------------------9v----------------------------------------------
D|--4v-------------------------------6v----------7v----------------------------------------------
A|-----------------------------------------------------------7v----------4v----------------------
E|-----------------------------------------------------------------------------------5v----------

E|--22v------------14-------22v---------14----19----17v---------------------16v---------------------19v---------------
B|--15v------------7--------15v---------------12----10v---------------------9v----------------------12v---------------
G|--7v----------------------------------11----------4v----------------------4v----------------------9v----------------
D|--------------------------4v----------------------------------------------------------------------------------------
A|--------------------------------------------------------------------------------------------------7v----------------
E|--2v-------------2--------------------------------7v----------------------7v----------------------------------------


E|--------------------------------------------------------------------------------------------------------------------------------------------------------------------------------------------------------------------------------------------------------------------
B|--10----9-----------------------------------------------------------------------------------------------------------------------------------------------------------------------------------------------------------------------------------------------------------
G|--------------9-----------------------------------------------------------------------------------------------------------------------------------------------------------------------------------------------------------------------------------------------------
D|--7-----6-----2-----------------------------------------------------------------------------------------------------2--2--4--4--4--4-----4-----4--4-----4-----3--3--3--3-----3-----3--3-----3-----4--4--4--4-----------4v-------------------------------------------
A|--------------------------------------------2--2--------------2--2--4--4--------2--2--4--4--5--5--2--2--4--4--5--5-----------------------------------------------------------------------------------------------------4v-------------------------------------------
E|--------------------0v----2--2--4--4--5--5--------4--4--5--5--------------5--5-----------------------------------------------------------------------------------------------------------------------------------------2v-------------------------------------------

---2v-------

E|--
B|--
G|--
D|--
A|--
E|--

E|--
B|--
G|--
D|--
A|--
E|--

E|--
B|--
G|--
D|--
A|--
E|--

E|---
B|--
G|--
D|--
A|--
E|--

Use manual mode to free up cursor. Paste any tab in acousterr tab maker and we'll play it !!!
tabs and chords, guitar tabs, music transcription, music technology, deep learning, music information retrieval, transcribe into tabs & chords, chordify, music renditions, songsterr, reverbnation, tabulature, bollywood chords, ultimate guitar, yousician, guitar lessons, acoustic guitar, electric guitar, guitar tuner, 911 tabs