Guitar Tabs for Naino Ne Baandhi

(intro)
E|--------------------13-11-10----10----10-11----10-
B|--11----11----11-13-------------------------13----
G|--------------------------------------------------
D|--------------------------------------------------
A|--------------------------------------------------
E|--------------------------------------------------

E|--------------------13-11-10----10----10----------
B|--11----11----11-13----------------------13-11-10-
G|--------------------------------------------------
D|--------------------------------------------------
A|--------------------------------------------------
E|--------------------------------------------------

E|--------------------------------------11-------------------------
B|-----------------------------11----13-------11-11-11-11-11-------
G|--12----12----12----12-12-12-------------------------------------
D|-----------------------------------------------------------------
A|-----------------------------------------------------------------
E|-----------------------------------------------------------------


Dil se sun piya ye dil ki daastaan
E|--------13----13----11-10----11-10h11p10-------------13----13----11-10-------
B|--11-------------------------------------13-11-11----------------------------
G|-----------------------------------------------------------------------------
D|-----------------------------------------------------------------------------
A|-----------------------------------------------------------------------------
E|-----------------------------------------------------------------------------


Jo lafzon mein nahi ho bayaan
E|-----------------13----13----15-13----11----10----10h11p10----------
B|-----11----11-------------------------------------------------13----
G|--------------------------------------------------------------------
D|--------------------------------------------------------------------
A|--------------------------------------------------------------------
E|--------------------------------------------------------------------


Ab jaisa bhi raasta Tootega na vaasta
E|-----10----------------------------------------------------------------------
B|--13----13-11-------------------11-11----11-10-10----11----13----13/15-15----
G|--------------12----10----12-------------------------------------------------
D|-----------------------------------------------------------------------------
A|-----------------------------------------------------------------------------
E|-----------------------------------------------------------------------------


Na rahega faasla darmiyaan…
E|-----10-------------------------------------------------------------
B|--13----13-11-------------------11-11----11----10-11/13----13/15----
G|--------------12----10----12----------------------------------------
D|--------------------------------------------------------------------
A|--------------------------------------------------------------------
E|--------------------------------------------------------------------


Naino ne baandhi kaisi dor re
E|--10----10----10-------10-------------------------------
B|-----------------13----------13-11----10----11-11/13----
G|--------------------------------------------------------
D|--------------------------------------------------------
A|--------------------------------------------------------
E|--------------------------------------------------------


Ho… munsif hi mera, mera chor re
E|--10/12-12----12-12-12-12-10h12p10-10----10----10----------------
B|--------------------------------------------13-------13-11-------
G|-----------------------------------------------------------------
D|-----------------------------------------------------------------
A|-----------------------------------------------------------------
E|-----------------------------------------------------------------


tabs and chords, guitar tabs, music contests, music covers, songsterr, reverbnation, renditions, tabulature, bollywood chords, ultimate guitar, yousician, guitar lessons, torrins, fender, gibson, acoustic guitar, electric guitar, youtube covers, gootar, guitar tuner, A-Z tabs, 911 tabs