Bass Tabs for Na Braçada

(/) Slide Up  (\) Slide Down  (h) Hammer On  (p) Pull Off  (b) Bend (r) Release (v) Vibrato (x) Muted
 

Na Braçada  
G|-----------------9---7/8-----------------------------------------------------11-11-11-
D|--------------9-----------9--11-9-----9--------------9--11-9-----9--------------------
A|-----9--11-12----------------------12----12-9--12-9-----------12----12-9--9-----------
E|--9-----------------------------------------------------------------------------------


G|--------------------------------------------4-----6-----7--------------------------------
D|-----4-----6-----7-----8------------------------------------------2h4--------------------
A|-----------------------------------------2-----4-----5------2h4-----------2--4--2--4-----
E|--2-----4-----5-----6-----6--7-----------------------------------------2--------------2--

G|-----------------------------------------------------------------------------------------------------------------------------------------------------------------------------------------------
D|--------------------------------------------------------------------------------------------------------------------------2--4-----------------------------------------------------------------
A|--------------------2--2--2-----2--4--2--4-----------------4--5--5--4--2--2--2-----2--4--2--4-----------------4--5--5--4--------2--2--2-----2--4--2--4-----------------4--5--5--4--2--2--3--4--
E|--2--2--2--5--5--5-----------2--------------2--0--2--4--5-----------------------2--------------2--0--2--4--5-----------------------------2--------------2--0--2--4--5--------------------------

G|--------------------------------------------------------------------------------------------------
D|--------------------------------------------------------------------------------------------------
A|--------------------------------------2--4--2--4-----------7--7--7--------------------2--4--2--4--
E|--2--2--2--5--5--5--7--7--7--2--2--2--------------2--2--2-----------7--7--7--2--2--2--------------

G|-----------------------------------------------------------------------------------------------------------
D|-----------------------------------------------------------------------------------------------------------
A|-----------------------------------------------------------------------2--4--2--4-----7--------2--4--2--4--
E|--2--2--5--7--2--2--0--1--2--2--5--7--2--2--0--1--2--------2--5--7--2--------------2-----7--2--------------





tabs and chords, guitar tabs, music transcription, music technology, deep learning, music information retrieval, transcribe into tabs & chords, chordify, music renditions, songsterr, reverbnation, tabulature, bollywood chords, ultimate guitar, yousician, guitar lessons, acoustic guitar, electric guitar, guitar tuner, 911 tabs