Guitar Tabs for My Song

(/) Slide Up  (\) Slide Down  (h) Hammer On  (p) Pull Off  (b) Bend (r) Release (v) Vibrato

Tabs for Song : 

Begining,Verse 1,Verse 2,Part 1 of end
E|--------------------------------------------------------------------------------
B|--------------------------------------------------------------------------------
G|--------------------------------------------------------------------------------
D|--0--2--2--0-----------0--------------------------0--2--2--0-----------0--------
A|---------------2v---------0------------------------------------2v------0--0-----
E|-----------------------------3------------------------------------------------3v

Chorus
E|--0-----0--------0-----------3--3-----------3-----------0--0-----------0--------------3--3-----------3--
B|--0-----0--------0-----------0--0-----------0-----------0--0-----------0--------------3--3-----------3--
G|--0-----0--------0-----------0--0-----------0-----------0--0-----------0--------------0--0-----------0--
D|--2-----2--------2-----------0--0-----------0-----------2--2-----------2--------------0--0-----------0--
A|--2-----2--------2-----------2--2-----------2-----------2--2-----------2--------------2--2-----------2--
E|--0-----0--------0-----------3--3-----------3-----------0--0-----------0--------------3--3-----------3--


Part 2 of end X2

E|--------------------------------------------------------------------
B|--------------------------------------------------------------------
G|--------------------------------------------------------------------
D|-----------0--------------------------------------0-----------------
A|--2--2--2--------0--0--------------------2--2--2--------0--0--------
E|-----------------------3--3-----------------------------------3--3--


Part 3 of end

E|-----------------------------------------------------------------2--
B|--------0--------------------------------------0-----------------0--
G|--0--2-----2--2--0--0--2-----------------0--2-----2--2--0--0--2--0---
D|-----------------------------------------------------------------0--
A|-----------------------------------------------------------------2--
E|-----------------------------------------------------------------3--
tabs and chords, guitar tabs, music transcription, music technology, deep learning, music information retrieval, transcribe into tabs & chords, chordify, music renditions, songsterr, reverbnation, tabulature, bollywood chords, ultimate guitar, yousician, guitar lessons, acoustic guitar, electric guitar, guitar tuner, 911 tabs