Guitar Tabs for My Skin

(/) Slide Up  (\) Slide Down  (h) Hammer On  (p) Pull Off  (b) Bend (r) Release (v) Vibrato (x) Muted

Tabs for Song : My Akin

Intro
D|-----------------------------------------------------------------------------
A|-----------------------------------------------------------------------------
F|--2--2-----2--2-----2--2-----2--2--2-----2--2-----2--2-----1--1-----1--1--1--
C|--4--4-----4--4-----4--4-----4--4--4-----0--0-----0--0-----2--2-----2--2--2--
G|--4--4-----4--4-----4--4-----4--4--4-----0--0-----0--0-----2--2-----2--2--2--
C|--4--4-----4--4-----4--4-----4--4--4-----0--0-----0--0-----2--2-----2--2--2--

Verse
D|-----------------------------------------------------------------------
A|--------10-10----------10-10-10-10----------9--9-----------9--9--9--9--
F|--------11-11----------11-11-11-11----------9--9-----------9--9--9--9--
C|--4--4-----------4--4-----------------0--0-----------0--0--------------
G|--4--4-----------4--4-----------------0--0-----------0--0--------------
C|--4--4-----------4--4-----------------0--0-----------0--0--------------

Pre-Chorus
D|--------------------------------------------------------------------------------------------------
A|--------------------------------------------------------------------------------------------------
F|--------------------------------------------------------------------------------------------------
C|--0--0--0--0--0--0--0--0--0--0--0--0--0--4--4--4--2--2--2--2--2--2--2--2--2--2--2--2--2--4--4--4--
G|--0--0--0--0--0--0--0--0--0--0--0--0--0--4--4--4--2--2--2--2--2--2--2--2--2--2--2--2--2--4--4--4--
C|--0--0--0--0--0--0--0--0--0--0--0--0--0--4--4--4--2--2--2--2--2--2--2--2--2--2--2--2--2--4--4--4--

Chorus
D|--------------------------------------------------------------------------------------------------
A|--------------------------------------------------------------------------------------------------
F|--------------------------------------------------4--4--4--4--4--4--4--4--4--4--4--4--4--4--4--4--
C|--9--9--9--9--9--9--9--9--9--9--9--9--9--9--9--9--2--2--2--2--2--2--2--2--2--2--2--2--2--2--2--2--
G|--7--7--7--7--7--7--7--7--7--7--7--7--7--7--7--7--2--2--2--2--2--2--2--2--2--2--2--2--2--2--2--2--
C|--7--7--7--7--7--7--7--7--7--7--7--7--7--7--7--7--2--2--2--2--2--2--2--2--2--2--2--2--2--2--2--2--

D|--------------------------------------------------------------------------------------------------
A|--------------------------------------------------------------------------------------------------
F|--6--6--6--6--6--6--6--6--6--6--6--6--6--6--6--6--11-11-11-11-11-11-11-11-13-13-13-13-14-14-14-14-
C|--4--4--4--4--4--4--4--4--4--4--4--4--4--4--4--4--------------------------------------------------
G|--4--4--4--4--4--4--4--4--4--4--4--4--4--4--4--4--9--9--9--9--9--9--9--9--11-11-11-11-12-12-12-12-
C|--4--4--4--4--4--4--4--4--4--4--4--4--4--4--4--4--0--0--0--0--0--0--0--0--0--0--0--0--0--0--0--0--

Paste any tab in acousterr's tab maker and we'll play it !!!
Now supports capo and sound effects for vibrato/pull-off/hammer/bends/mutes etc !!! Checkout help section
tabs and chords, guitar tabs, music transcription, music technology, deep learning, music information retrieval, transcribe into tabs & chords, chordify, music renditions, songsterr, reverbnation, tabulature, bollywood chords, ultimate guitar, yousician, guitar lessons, acoustic guitar, electric guitar, guitar tuner, 911 tabs