Guitar Tabs for My Own Song. System Of A Down Style

(/) Slide Up  (\) Slide Down  (h) Hammer On  (p) Pull Off  (b) Bend (r) Release (v) Vibrato

Tabs for Song : 

Song lyrics here
E|--------------------------------------------------------------------------------------------------
B|--------------------------------------------------------------------------------------------------
G|--------------------------------------------------------------------------------------------------
D|-----5-----5-----5-----5-----7-----7-----7-----7--------------------------------------------------
A|--7-----7-----7-----7-----9-----9-----9-----9--------9-----9-----9-----9-----10----10----10----10-
E|--------------------------------------------------7-----7-----7-----7-----8-----8-----8-----8-----

E|--------------------------------------------------------------------------------------------------
B|--------------------------------------------------------------------------------------------------
G|--------------------------------------------------------------------------------------------------
D|-----5-----5-----5-----5-----7-----7-----7-----7--------------------------------------------------
A|--7-----7-----7-----7-----9-----9-----9-----9--------9-----9-----9-----9-----10----10----10----10-
E|--------------------------------------------------7-----7-----7-----7-----8-----8-----8-----8-----

E|--------------------------------------------------------------------------------------------------
B|--------------------------------------------------------------------------------------------------
G|--------------------------------------------------------------------------------------------------
D|-----5-----5-----5-----5-----7-----7-----7-----7--------------------------------------------------
A|--7-----7-----7-----7-----9-----9-----9-----9--------9-----9-----9-----9-----10----10----10----10-
E|--------------------------------------------------7-----7-----7-----7-----8-----8-----8-----8-----

E|--------------------------------------------------------------------------------------------------
B|--------------------------------------------------------------------------------------------------
G|--------------------------------------------------------------------------------------------------
D|-----5-----5-----5-----5-----7-----7-----7-----7--------------------------------------------------
A|--7-----7-----7-----7-----9-----9-----9-----9--------9-----9-----9-----9-----10----10----10----10-
E|--------------------------------------------------7-----7-----7-----7-----8-----8-----8-----8-----

E|--------------------------------------------------------------------------------------------------
B|--------------------------------------------------------------------------------------------------
G|--------------------------------------------------------------------------------------------------
D|--------------5--------5--------5-----7--------7--------7-----------------------------------------
A|--------------7--7--7--7--7--7--7--7--9--9--9--9--9--9--9--9--9--------9--------9-----10-------10-
E|--8-----------------------------------------------------------7--7--7--7--7--7--7--7--8--8--8--8--

E|--------------------------------------------------------------------------------------------------
B|--------------------------------------------------------------------------------------------------
G|--------------------------------------------------------------------------------------------------
D|--------------5--------5--------5-----7--------7--------7-----------------------------------------
A|--------10----7--7--7--7--7--7--7--7--9--9--9--9--9--9--9--9--9--------9--------9-----10-------10-
E|--8--8--8--8--------------------------------------------------7--7--7--7--7--7--7--7--8--8--8--8--

E|--------------------------------------------------------------------------------------------------
B|--------------------------------------------------------------------------------------------------
G|--------------------------------------------------------------------------------------------------
D|--------------5--------5--------5-----7--------7--------7-----------------------------------------
A|--------10----7--7--7--7--7--7--7--7--9--9--9--9--9--9--9--9--9--------9--------9-----10-------10-
E|--8--8--8--8--------------------------------------------------7--7--7--7--7--7--7--7--8--8--8--8--

E|--------------------------------------------------------------------------------------------------
B|--------------------------------------------------------------------------------------------------
G|--------------------------------------------------------------------------------------------------
D|--------------5--------5--------5-----7--------7--------7-----------------------------------------
A|--------10----7--7--7--7--7--7--7--7--9--9--9--9--9--9--9--9--9--------9--------9-----10-------10-
E|--8--8--8--8--------------------------------------------------7--7--7--7--7--7--7--7--8--8--8--8--

E|--------------------------------------------------------------------------------------------------
B|--------------------------------------------------------------------------------------------------
G|--------------------------------------------------------------------------------------------------
D|-----------------------------5-----5-----5-----5-----7-----7-----7-----7--------------------------
A|--------10----------------7-----7-----7-----7-----9-----9-----9-----9--------9-----9-----9-----9--
E|--8--8--8--8--8-----------------------------------------------------------7-----7-----7-----7-----

E|--------------------------------------------------------------------------------------------------
B|--------------------------------------------------------------------------------------------------
G|--------------------------------------------------------------------------------------------------
D|-----------------------------5-----5-----5-----5-----7-----7-----7-----7--------------------------
A|-----10----10----10----10-7-----7-----7-----7-----9-----9-----9-----9--------9-----9-----9-----9--
E|--8-----8-----8-----8-----------------------------------------------------7-----7-----7-----7-----

E|--------------------------
B|--------------------------
G|--------------------------
D|--------------------------
A|-----10----10----10----10-
E|--8-----8-----8-----8-----

E|--
B|--
G|--
D|--
A|--
E|--

Lead guitar
Not finished

E|--------------------------------------------------------------------------------------------------
B|--------------------------------------------------------------------------------------------------
G|--------------------------------------------------------------------------------------------------
D|--------------------------------------------------------------------------------------------------
A|--------------------------------------------------------------------------------------------------
E|--------------------------------------------------------------------------------------------------

E|--------------------------------------------------------------------------------------------------
B|--------------------------------------------------------------------------------------------------
G|--------------------------------------------------------------------------------------------------
D|--------------------------------------------------------------------------------------------------
A|--------------------------------------------------------------------------------------------------
E|--------------------------------------------------------------------------------------------------

E|--------------------------------------------------------------------------------------------------
B|--------------------------------------------------------------------------------------------------
G|--------------------------------------------------------------------------------------------------
D|--------------------------------------------------------------------------------------------------
A|--------------------------------------------------------------------------------------------------
E|--------------------------------------------------------------------------------------------------

E|--------------------------------------------------------------------------------------------------
B|--------------------------------------------------------------------------------------------------
G|--------------------------------------------------------------------------------------------------
D|--------------------------------------------------------------------------------------------------
A|--------------------------------------------------------------------------------------------------
E|--------------------------------------------------------------------------------------------------

E|--------------------------------------------------------------------------------------------------
B|--------------------------------------------------------------------------------------------------
G|--------------------------------------------------------------------------------------------------
D|--------------------------------------------------------------------------------------------------
A|--------------------------------------------------------------------------------------------------
E|--------------------------------------------------------------------------------------------------

E|--------------
B|--------------
G|--------------
D|--------------
A|--------------
E|--------------

tabs and chords, guitar tabs, music contests, music covers, songsterr, reverbnation, renditions, tabulature, bollywood chords, ultimate guitar, yousician, guitar lessons, torrins, fender, gibson, acoustic guitar, electric guitar, youtube covers, gootar, guitar tuner, A-Z tabs, 911 tabs