Guitar Tabs for My Melody

(/) Slide Up  (\) Slide Down  (h) Hammer On  (p) Pull Off  (b) Bend (r) Release (v) Vibrato (x) Muted

Tabs for Song : 

Song lyrics here
E|-3--3--2--2--0-----0--0------------------------------------------------
B|--------------------------3--3--1-----0-----1--0-----0--1--0-----------
G|-----------------------------------0--------------0------------1h3--1--
D|-----------------------------------------------------------------------
A|-----------------------------------------------------------------------
E|-----------------------------------------------------------------------

E|------------------------------------------------------------------------8-
B|--------------------------------------------------10-8--6--5--------6-----
G|--3--1---1h3--1--3--5--3--1--3--6--5--3--1---1/3--------------5--7--------
D|--------------------------------------------------------------------------
A|--------------------------------------------------------------------------
E|--------------------------------------------------------------------------

E|------------------------
B|---8h10----------------
G|-----------8--6--------
D|------------------5h7--
A|-----------------------
E|-----------------------

Song lyrics here
E|-----------------------------------------------------------------------------
B|-----------3-----------3-----------3--------------4--3-----------------------
G|-----0-----------0--0--------0--0-----0-----0--3--------3--------3--1--------
D|--------------------------------------------------------------3--------------
A|--3-----3-----3-----------3--------------3-----------------3-----------2--2--
E|-----------------------------------------------------------------------------

E|-----------------------3--3--2--2--0-----0--0--------------------------------------
B|--0--1--0--2-----------------------------------3--3--1--------0--1--0-----0--1--0--
G|--------------3--------------------------------------------0-----------0-----------
D|-----------------0--2--------------------------------------------------------------
A|-----------------------------------------------------------------------------------
E|-----------------------------------------------------------------------------------

E|-----------------------------------------------------------
B|--------------------------------------------10-8--6--5-----
G|---1h3--1--3--1--3--1--3---3/5--3--1---1/3--------------5--
D|-----------------------------------------------------------
A|-----------------------------------------------------------
E|-----------------------------------------------------------

E|-----------------8---------------------------------------1m1
B|-----------------------------------------------------
G|------5h7--5--7--6-----------------------------------
D|--7--------------------10----8-----------10-8--------
A|--------------------------------11-11----------11-11-
E|-----------------------------------------------------

Paste any tab in acousterr's tab maker and we'll play it !!!
Now supports capo and sound effects for vibrato/pull-off/hammer/bends/mutes etc !!! Checkout help section
tabs and chords, guitar tabs, music transcription, music technology, deep learning, music information retrieval, transcribe into tabs & chords, chordify, music renditions, songsterr, reverbnation, tabulature, bollywood chords, ultimate guitar, yousician, guitar lessons, acoustic guitar, electric guitar, guitar tuner, 911 tabs