My Heart - K's Choice - Guitar Tabs

Piste 1
    
                                                                                                                                                                                                                                                                                                                                                                                                                                                                                                                                                                                                                                                                                                                                                                                                                                                                                                                                                                                                                                                                                                                                                                                              
E|-------------------------|-----------------------|
B|--------3-----------3----|------3-----------3----|
G|-----2-----2-----2-----2-|---2-----2-----2-----2-|
D|--0----------------------|-----------------------|
A|--------------0----------|2----------------------|
E|-------------------------|------------2----------|

    
                                                                                                                                                                                                                                                                                                                                                                                                                                                                                                                                                                                                                                                                                                                                                                                                                                                                                                                                                                                                                                                                                                                                                                                              
E|-------------------------|-----------------------|
B|--------3-----------3----|------3-----------3----|
G|-----2-----2-----2-----2-|---2-----2-----2-----2-|
D|--------------0----------|-----------------------|
A|-------------------------|------------0----------|
E|--3----------------------|3----------------------|

    
                                                                                                                                                                                                                                                                                                                                                                                                                                                                                                                                                                                                                                                                                                                                                                                                                                                                                                                                                                                                                                                                                                                                                                                              
E|-------------------------|-----------------------|
B|--------3-----------3----|------3-----------3----|
G|-----2-----2-----2-----2-|---2-----2-----2-----2-|
D|--0----------------------|-----------------------|
A|--------------0----------|2----------------------|
E|-------------------------|------------2----------|

    
                                                                                                                                                                                                                                                                                                                                                                                                                                                                                                                                                                                                                                                                                                                                                                                                                                                                                                                                                                                                                                                                                                                                                                                              
E|-------------------------|-----------------------|
B|--------3-----------3--3-|------3-----------3--2-|
G|-----2-----2-----2-------|---2-----2-----2-------|
D|-------------------------|0----------------------|
A|-------------------------|------------0----------|
E|--3-----------3----------|-----------------------|

    
                                                                                                                                                                                                                                                                                                                                                                                                                                                                                                                                                                                                 
E|-------------------------|
B|--------3-----------3----|
G|-----2-----2-----2-----2-|
D|--0----------------------|
A|--------------0----------|
E|-------------------------|

    
                                                                                                                                                                                                                                                                                                                                                                                                                                                                                                                                                                                                 
E|-------------------------|
B|--------3-----------3----|
G|-----2-----2-----2-----2-|
D|-------------------------|
A|--2----------------------|
E|--------------2----------|

    
                                                                                                                                                                                                                                                                                                                                                                                                                                                                                                                                                                                                                                                                                                                                                                                                                                                                                                                                                                                                                                                                                                                                                                                              
E|-------------------------|-----------------------|
B|--------3-----------3--3-|------3-----------3----|
G|-----2-----2-----2-------|---2-----2-----2-----2-|
D|-------------------------|0----------------------|
A|-------------------------|------------0----------|
E|--3-----------3----------|-----------------------|

    
                                                                                                                                                                                                                                                                                                                                                                                                                                                                                                                                                                                                                                                                                                                                                                                                                                                                                                                                                                                                                                                                                                                                                                                              
E|-------------------------|-----------------------|
B|--------3-----------3----|------3-----------3----|
G|-----2-----2-----2-----2-|---2-----2-----2-----2-|
D|--0----------------------|-----------------------|
A|--------------0----------|2----------------------|
E|-------------------------|------------2----------|

    
                                                                                                                                                                                                                                                                                                                                                                                                                                                                                                                                                                                                                                                                                                                                                                                                                                                                                                                                                                                                                                                                                                                                                                                              
E|-------------------------|-----------------------|
B|--------3-----------3--3-|------3-----------3----|
G|-----2-----2-----2-------|---2-----2-----2-----2-|
D|-------------------------|0----------------------|
A|-------------------------|------------0----------|
E|--3-----------3----------|-----------------------|

    
                                                                                                                                                                                                                                                                                                                                                                                                                                                                                                                                                                                                 
E|-------------------------|
B|--------3-----------3----|
G|-----2-----2-----2-----2-|
D|--0----------------------|
A|--------------0----------|
E|-------------------------|

    
                                                                                                                                                                                                                                                                                                                                                                                                                                                                                                                                                                                                 
E|-------------------------|
B|--------3-----------3----|
G|-----2-----2-----2-----2-|
D|-------------------------|
A|--2----------------------|
E|--------------2----------|

    
                                                                                                                                                                                                                                                                                                                                                                                                                                                                                                                                                                                                                                                                                                                                                                                                                                                                                                                                                                                                                                                                                                                                                                                              
E|-------------------------|-----------------------|
B|--------3-----------3--3-|------3-----------3----|
G|-----2-----2-----2-------|---2-----2-----2-----2-|
D|-------------------------|0----------------------|
A|-------------------------|------------0----------|
E|--3-----------3----------|-----------------------|

    
                                                                                                                                                                                                                                                                                                                                                                                                                                                                                                                                                                                                                                                                                                                                                                                                                                                                                                                                                                                                                                                                                                                                                                                              
E|-------------------------|-----------------------|
B|--------3-----------3----|------3-----------3----|
G|-----2-----2-----2-----2-|---2-----2-----2-----2-|
D|--0----------------------|-----------------------|
A|--------------0----------|2----------------------|
E|-------------------------|------------2----------|

    
                                                                                                                                                                                                                                                                                                                                                                                                                                                                                                                                                                                                                                                                                                                                                                                                                                                                                                                                                                                                                                                                                                                                                                                              
E|-------------------------|-----------------------|
B|--------3-----------3--3-|------3-----------3----|
G|-----2-----2-----2-------|---2-----2-----2-----2-|
D|-------------------------|0----------------------|
A|-------------------------|------------0----------|
E|--3-----------3----------|-----------------------|

    
                                                                                                                                                                                                                                                                                                                                                                                                                                                                                                                                                                                                                                                                                                                                                                                                                                                                                                                                                                                                                                                                                                                                                                                              
E|-------------------------|-----------------------|
B|--------3-----------3----|------3-----------3----|
G|-----2-----2-----2-----2-|---2-----2-----2-----2-|
D|--0----------------------|-----------------------|
A|--------------0----------|2----------------------|
E|-------------------------|------------2----------|

    
                                                                                                                                                                                                                                                                                                                                                                                                                                                                                                                                                                                                                                                                                                                                                                                                                                                                                                                                                                                                                                                                                                                                                                                              
E|-------------------------|-----------------------|
B|--------3-----------3----|------3-----2--3-------|
G|-----2-----2-----2-----2-|---2-----2-------------|
D|-------------------------|-----------------------|
A|-------------------------|2----------------------|
E|--3-----------3----------|-----------------------|

    
                                                                                                                                                                                                                                                                                                                                                                                                                                                                                                                                                                                                                                                                                                                                                                                                                                                                                                                                                                                                                                                                                                                                                                                              
E|-------------------------|-----------------------|
B|--------3-----------3----|------3-----------3----|
G|-----2-----2-----2-----2-|---2-----2-----2-----2-|
D|--0----------------------|-----------------------|
A|--------------0----------|2----------------------|
E|-------------------------|------------2----------|

    
                                                                                                                                                                                                                                                                                                                                                                                                                                                                                                                                                                                                                                                                                                                                                                                                                                                                                                                                                                                                                                                                                                                                                                                              
E|-------------------------|-----------------------|
B|--------3----------------|------3-----------3----|
G|-----2-----2-------------|---2-----2-----2-----2-|
D|-------------------------|0----------------------|
A|-------------------------|------------0----------|
E|--3----------------------|-----------------------|

    
                                                                                                                                                                                                                                                                                                                                                                                                                                                                                                                                                                                                                                                                                                                                                                                                                                                                                                                                                                                                                                                                                                                                                                                              
E|-------------------------|-----------------------|
B|--------3-----------3----|------3-----------3----|
G|-----2-----2-----2-----2-|---2-----2-----2-----2-|
D|-------------------------|------------0----------|
A|--2----------------------|-----------------------|
E|--------------2----------|3----------------------|

    
                                                                                                                                                                                                                                                                                                                                                                                                                                                                                                                                                                                                 
E|-------------------------|
B|--------3-----------3----|
G|-----2-----2-----2-----2-|
D|-------------------------|
A|--------------0----------|
E|--3----------------------|

    
                                                                                                                                                                                                                                                                                                                                                                                                                                                                                                                                                                                                                                                                                                                                                                                                                                                                                                                                                                                                                                                                                                                                                                                              
E|-------------------------|-----------------------|
B|--------3-----------3----|------3-----------3----|
G|-----2-----2-----2-----2-|---2-----2-----2-----2-|
D|--0----------------------|-----------------------|
A|--------------0----------|2----------------------|
E|-------------------------|------------2----------|

    
                                                                                                                                                                                                                                                                                                                                                                                                                                                                                                                                                                                                                                                                                                                                                                                                                                                                                                                                                                                                                                                                                                                                                                                              
E|-------------------------|-----------------------|
B|--------3-----------3--3-|------3-----------3----|
G|-----2-----2-----2-------|---2-----2-----2-----2-|
D|-------------------------|0----------------------|
A|-------------------------|------------0----------|
E|--3-----------3----------|-----------------------|

    
                                                                                                                                                                                                                                                                                                                                                                                                                                                                                                                                                                                                                                                                                                                                                                                                                                                                                                                                                                                                                                                                                                                                                                                              
E|-------------------------|-----------------------|
B|--------3-----------3----|------3-----------3----|
G|-----2-----2-----2-----2-|---2-----2-----2-----2-|
D|--0----------------------|-----------------------|
A|--------------0----------|2----------------------|
E|-------------------------|------------2----------|

    
                                                                                                                                                                                                                                                                                                                                                                                                                                                                                                                                                                                                                                                                                                                                                                                                                                                                                                                                                                                                                                                                                                                                                                                              
E|-------------------------|-----------------------|
B|--------3-----------3--3-|------3-----------3----|
G|-----2-----2-----2-------|---2-----2-----2-----2-|
D|-------------------------|0----------------------|
A|-------------------------|------------0----------|
E|--3-----------3----------|-----------------------|

    
                                                                                                                                                                                                                                                                                                                                                                                                                                                                                                                                                                                                                                                                                                                                                                                                                                                                                                                                                                                                                                                                                                                                                                                              
E|-------------------------|-----------------------|
B|--------3-----------3----|------3-----------3----|
G|-----2-----2-----2-----2-|---2-----2-----2-----2-|
D|--0----------------------|-----------------------|
A|--------------0----------|2----------------------|
E|-------------------------|------------2----------|

    
                                                                                                                                                                                                                                                                                                                                                                                                                                                                                                                                                                                                                                                                                                                                                                                                                                                                                                                                                                                                                                                                                                                                                                                              
E|-------------------------|-----------------------|
B|--------3-----------3----|------3-----2--3-------|
G|-----2-----2-----2-----2-|---2-----2-------------|
D|-------------------------|-----------------------|
A|-------------------------|2----------------------|
E|--3-----------3----------|-----------------------|

    
                                                                                                                                                                                                                                                                                                                                                                                                                                                                                                                                                                                                                                                                                                                                                                                                                                                                                                                                                                                                                                                                                                                                                                                              
E|-------------------------|-----------------------|
B|--------3-----------3----|------3-----------3----|
G|-----2-----2-----2-----2-|---2-----2-----2-----2-|
D|--0----------------------|-----------------------|
A|--------------0----------|2----------------------|
E|-------------------------|------------2----------|

    
                                                                                                                                                                                                                                                                                                                                                                                                                                                                                                                                                                                                                                                                                                                                                                                                                                                                                                                                                                                                                                                                                                                                                                                              
E|-------------------------|-----------------------|
B|--------3----------------|------3-----------3----|
G|-----2-----2-------------|---2-----2-----2-----2-|
D|-------------------------|0----------------------|
A|-------------------------|------------0----------|
E|--3----------------------|-----------------------|

    
                                                                                                                                                                                                                                                                                                                                                                                                                                                                                                                                                                                                                                                                                                                                                                                                                                                                                                                                                                                                                                                                                                                                                                                              
E|-------------------------|-----------------------|
B|--------3-----------3----|------3-----------3----|
G|-----2-----2-----2-----2-|---2-----2-----2-----2-|
D|-------------------------|------------0----------|
A|--2----------------------|-----------------------|
E|--------------2----------|3----------------------|

    
                                                                                                                                                                                                                                                                                                                                                                                                                                                                                                                                                                                                                                                                                                                                                                                                                                                                                                                                                                                                                                                                                                                                                                                              
E|-------------------------|-0p2-------------------|
B|--------3-----------3--2-|-3p--------------------|
G|-----2-----2-----2-------|-2p--------------------|
D|-------------------------|-0p--------------------|
A|--------------0----------|-----------------------|
E|--3----------------------|-----------------------|

About X My Heart (song) : The song was written by Sandra Bjurman and produced by Dimitris Kontopoulos and Tim Bran . The song is an uptempo dance-pop song, which, despite its nature, is about Aisel's late husband . Aisel was internally selected by Azeri broadcaster ─░ctimai Television in November 2017 . The name of the song was announced on 3 March 2018, while the song itself was released on 4 March 2018 . The song competed in the first semi-final, held in Lisbon, Portugal, where it failed to qualify for the final . It was released in 2018. The genre is dance-pop. The track was release in 2018. X My Heart (song) has a significant contribution from artist(s) Aisel,Sandra Bjurman,Dimitris Kontopoulos,Tim Bran.

About Dimitris Kontopoulos - Dimitris Kontopoulos is one of the most famous Greek music composers known for his dance-pop music Dimitris Kontopoulos was born in Athens, Greece on November 9, 1971 . He continued his studies in film scoring at Berklee College of Music in Boston, Massachusetts and the University of Kontopoulos is married and has two children and avoids public appearances . He dislikes being recognized stating that celebrity life kills privacy Dimitris Kontopoulos's music is influenced by genre(s) - dance-pop.

About Aisel (singer) - Aysel Mammadova represented Azerbaijan in the Eurovision Song Contest 2018 with the song "X My Heart" The Azerbaijani singer represented Azerbaijan Mammadova attended the Special Secondary Musical School and the Azerbaijan State Conservatory. In addition to her native Azerbaijani, she is fluent in English. Aisel (singer)'s most popular songs include - X My Heart. Aisel (singer)'s music is influenced by genre(s) - jazz soul.

tabs and chords, guitar tabs, music transcription, music technology, deep learning, music information retrieval, transcribe into tabs & chords, chordify, music renditions, songsterr, reverbnation, tabulature, bollywood chords, ultimate guitar, yousician, guitar lessons, acoustic guitar, electric guitar, guitar tuner, 911 tabs